  0
SECTION
  2
HEADER
  9
$ACADVER
  1
AC1015
  9
$ACADMAINTVER
 70
     6
  9
$DWGCODEPAGE
  3
ANSI_1254
  9
$INSBASE
 10
0.0
 20
0.0
 30
0.0
  9
$EXTMIN
 10
0.0
 20
0.0
 30
0.0
  9
$EXTMAX
 10
279.4
 20
215.9
 30
0.0
  9
$LIMMIN
 10
0.0
 20
0.0
  9
$LIMMAX
 10
279.4
 20
215.9
  9
$ORTHOMODE
 70
     0
  9
$REGENMODE
 70
     1
  9
$FILLMODE
 70
     1
  9
$QTEXTMODE
 70
     0
  9
$MIRRTEXT
 70
     1
  9
$LTSCALE
 40
1.0
  9
$ATTMODE
 70
     1
  9
$TEXTSIZE
 40
3.5
  9
$TRACEWID
 40
1.0
  9
$TEXTSTYLE
  7
Standard
  9
$CLAYER
  8
0
  9
$CELTYPE
  6
ByLayer
  9
$CECOLOR
 62
   256
  9
$CELTSCALE
 40
1.0
  9
$DISPSILH
 70
     0
  9
$DIMSCALE
 40
1.0
  9
$DIMASZ
 40
3.5
  9
$DIMEXO
 40
1.0
  9
$DIMDLI
 40
3.75
  9
$DIMRND
 40
0.0
  9
$DIMDLE
 40
0.0
  9
$DIMEXE
 40
1.0
  9
$DIMTP
 40
0.0
  9
$DIMTM
 40
0.0
  9
$DIMTXT
 40
3.5
  9
$DIMCEN
 40
2.5
  9
$DIMTSZ
 40
0.0
  9
$DIMTOL
 70
     0
  9
$DIMLIM
 70
     0
  9
$DIMTIH
 70
     1
  9
$DIMTOH
 70
     1
  9
$DIMSE1
 70
     0
  9
$DIMSE2
 70
     0
  9
$DIMTAD
 70
     1
  9
$DIMZIN
 70
     0
  9
$DIMBLK
  1

  9
$DIMASO
 70
     1
  9
$DIMSHO
 70
     1
  9
$DIMPOST
  1

  9
$DIMAPOST
  1

  9
$DIMALT
 70
     0
  9
$DIMALTD
 70
     3
  9
$DIMALTF
 40
0.0393700787
  9
$DIMLFAC
 40
1.0
  9
$DIMTOFL
 70
     1
  9
$DIMTVP
 40
0.0
  9
$DIMTIX
 70
     0
  9
$DIMSOXD
 70
     0
  9
$DIMSAH
 70
     0
  9
$DIMBLK1
  1

  9
$DIMBLK2
  1

  9
$DIMSTYLE
  2
ISO-25
  9
$DIMCLRD
 70
     0
  9
$DIMCLRE
 70
     0
  9
$DIMCLRT
 70
     0
  9
$DIMTFAC
 40
1.0
  9
$DIMGAP
 40
1.524
  9
$DIMJUST
 70
     0
  9
$DIMSD1
 70
     0
  9
$DIMSD2
 70
     0
  9
$DIMTOLJ
 70
     0
  9
$DIMTZIN
 70
     0
  9
$DIMALTZ
 70
     0
  9
$DIMALTTZ
 70
     0
  9
$DIMUPT
 70
     0
  9
$DIMDEC
 70
     2
  9
$DIMTDEC
 70
     2
  9
$DIMALTU
 70
     2
  9
$DIMALTTD
 70
     3
  9
$DIMTXSTY
  7
Standard
  9
$DIMAUNIT
 70
     0
  9
$DIMADEC
 70
     2
  9
$DIMALTRND
 40
0.0
  9
$DIMAZIN
 70
     0
  9
$DIMDSEP
 70
    44
  9
$DIMATFIT
 70
     3
  9
$DIMFRAC
 70
     0
  9
$DIMLDRBLK
  1

  9
$DIMLUNIT
 70
     2
  9
$DIMLWD
 70
    -2
  9
$DIMLWE
 70
    -2
  9
$DIMTMOVE
 70
     0
  9
$LUNITS
 70
     2
  9
$LUPREC
 70
     2
  9
$SKETCHINC
 40
1.0
  9
$FILLETRAD
 40
10.0
  9
$AUNITS
 70
     0
  9
$AUPREC
 70
     2
  9
$MENU
  1
.
  9
$ELEVATION
 40
0.0
  9
$PELEVATION
 40
0.0
  9
$THICKNESS
 40
0.0
  9
$LIMCHECK
 70
     0
  9
$CHAMFERA
 40
0.0
  9
$CHAMFERB
 40
0.0
  9
$CHAMFERC
 40
0.0
  9
$CHAMFERD
 40
0.0
  9
$SKPOLY
 70
     0
  9
$TDCREATE
 40
2458985.721437165
  9
$TDUCREATE
 40
2458985.596437165
  9
$TDUPDATE
 40
2458985.721437558
  9
$TDUUPDATE
 40
2458985.596437558
  9
$TDINDWG
 40
0.0000000116
  9
$TDUSRTIMER
 40
0.0000000116
  9
$USRTIMER
 70
     1
  9
$ANGBASE
 50
0.0
  9
$ANGDIR
 70
     0
  9
$PDMODE
 70
     0
  9
$PDSIZE
 40
-1.0
  9
$PLINEWID
 40
0.0
  9
$SPLFRAME
 70
     0
  9
$SPLINETYPE
 70
     6
  9
$SPLINESEGS
 70
     8
  9
$HANDSEED
  5
E1
  9
$SURFTAB1
 70
     6
  9
$SURFTAB2
 70
     6
  9
$SURFTYPE
 70
     6
  9
$SURFU
 70
     6
  9
$SURFV
 70
     6
  9
$UCSBASE
  2

  9
$UCSNAME
  2

  9
$UCSORG
 10
0.0
 20
0.0
 30
0.0
  9
$UCSXDIR
 10
1.0
 20
0.0
 30
0.0
  9
$UCSYDIR
 10
0.0
 20
1.0
 30
0.0
  9
$UCSORTHOREF
  2

  9
$UCSORTHOVIEW
 70
     0
  9
$UCSORGTOP
 10
0.0
 20
0.0
 30
0.0
  9
$UCSORGBOTTOM
 10
0.0
 20
0.0
 30
0.0
  9
$UCSORGLEFT
 10
0.0
 20
0.0
 30
0.0
  9
$UCSORGRIGHT
 10
0.0
 20
0.0
 30
0.0
  9
$UCSORGFRONT
 10
0.0
 20
0.0
 30
0.0
  9
$UCSORGBACK
 10
0.0
 20
0.0
 30
0.0
  9
$PUCSBASE
  2

  9
$PUCSNAME
  2

  9
$PUCSORG
 10
0.0
 20
0.0
 30
0.0
  9
$PUCSXDIR
 10
1.0
 20
0.0
 30
0.0
  9
$PUCSYDIR
 10
0.0
 20
1.0
 30
0.0
  9
$PUCSORTHOREF
  2

  9
$PUCSORTHOVIEW
 70
     0
  9
$PUCSORGTOP
 10
0.0
 20
0.0
 30
0.0
  9
$PUCSORGBOTTOM
 10
0.0
 20
0.0
 30
0.0
  9
$PUCSORGLEFT
 10
0.0
 20
0.0
 30
0.0
  9
$PUCSORGRIGHT
 10
0.0
 20
0.0
 30
0.0
  9
$PUCSORGFRONT
 10
0.0
 20
0.0
 30
0.0
  9
$PUCSORGBACK
 10
0.0
 20
0.0
 30
0.0
  9
$USERI1
 70
     0
  9
$USERI2
 70
     0
  9
$USERI3
 70
     0
  9
$USERI4
 70
     0
  9
$USERI5
 70
     0
  9
$USERR1
 40
0.0
  9
$USERR2
 40
0.0
  9
$USERR3
 40
0.0
  9
$USERR4
 40
0.0
  9
$USERR5
 40
0.0
  9
$WORLDVIEW
 70
     1
  9
$SHADEDGE
 70
     3
  9
$SHADEDIF
 70
    70
  9
$TILEMODE
 70
     1
  9
$MAXACTVP
 70
    64
  9
$PINSBASE
 10
0.0
 20
0.0
 30
0.0
  9
$PLIMCHECK
 70
     0
  9
$PEXTMIN
 10
1.0000000000E+20
 20
1.0000000000E+20
 30
1.0000000000E+20
  9
$PEXTMAX
 10
-1.0000000000E+20
 20
-1.0000000000E+20
 30
-1.0000000000E+20
  9
$PLIMMIN
 10
0.0
 20
0.0
  9
$PLIMMAX
 10
420.0
 20
297.0
  9
$UNITMODE
 70
     0
  9
$VISRETAIN
 70
     1
  9
$PLINEGEN
 70
     0
  9
$PSLTSCALE
 70
     1
  9
$TREEDEPTH
 70
  3020
  9
$CMLSTYLE
  2
Standard
  9
$CMLJUST
 70
     0
  9
$CMLSCALE
 40
20.0
  9
$PROXYGRAPHICS
 70
     1
  9
$MEASUREMENT
 70
     1
  9
$CELWEIGHT
370
    -1
  9
$ENDCAPS
280
     0
  9
$JOINSTYLE
280
     0
  9
$LWDISPLAY
290
     1
  9
$INSUNITS
 70
     4
  9
$HYPERLINKBASE
  1

  9
$STYLESHEET
  1

  9
$XEDIT
290
     1
  9
$CEPSNTYPE
380
     0
  9
$PSTYLEMODE
290
     1
  9
$FINGERPRINTGUID
  2
{8ee0abef-6ef1-4a1e-b3eb-1d17ee090442}
  9
$VERSIONGUID
  2
{FAEB1C32-E019-11D5-929B-00C0DF256EC4}
  9
$EXTNAMES
290
     1
  9
$PSVPSCALE
 40
0.0
  9
$OLESTARTUP
290
     0
  0
ENDSEC
  0
SECTION
  2
CLASSES
  0
CLASS
  1
ACDBDICTIONARYWDFLT
  2
AcDbDictionaryWithDefault
  3
ObjectDBX Classes
 90
        0
280
     0
281
     0
  0
CLASS
  1
VISUALSTYLE
  2
AcDbVisualStyle
  3
ObjectDBX Classes
 90
     4095
280
     0
281
     0
  0
CLASS
  1
MATERIAL
  2
AcDbMaterial
  3
ObjectDBX Classes
 90
     1153
280
     0
281
     0
  0
CLASS
  1
SCALE
  2
AcDbScale
  3
ObjectDBX Classes
 90
     1153
280
     0
281
     0
  0
CLASS
  1
TABLESTYLE
  2
AcDbTableStyle
  3
ObjectDBX Classes
 90
     4095
280
     0
281
     0
  0
CLASS
  1
MLEADERSTYLE
  2
AcDbMLeaderStyle
  3
ACDB_MLEADERSTYLE_CLASS
 90
     4095
280
     0
281
     0
  0
CLASS
  1
SUN
  2
AcDbSun
  3
SCENEOE
 90
     1153
280
     0
281
     0
  0
CLASS
  1
ACDBPLACEHOLDER
  2
AcDbPlaceHolder
  3
ObjectDBX Classes
 90
        0
280
     0
281
     0
  0
CLASS
  1
LAYOUT
  2
AcDbLayout
  3
ObjectDBX Classes
 90
        0
280
     0
281
     0
  0
ENDSEC
  0
SECTION
  2
TABLES
  0
TABLE
  2
VPORT
  5
8
330
0
100
AcDbSymbolTable
 70
     1
  0
VPORT
  5
29
330
8
100
AcDbSymbolTableRecord
100
AcDbViewportTableRecord
  2
*Active
 70
     0
 10
0.0
 20
0.0
 11
1.0
 21
1.0
 12
139.7
 22
107.95
 13
0.0
 23
0.0
 14
10.0
 24
10.0
 15
10.0
 25
10.0
 16
0.0
 26
0.0
 36
1.0
 17
0.0
 27
0.0
 37
0.0
 40
215.9
 41
1.2941176471
 42
50.0
 43
0.0
 44
0.0
 50
0.0
 51
0.0
 71
     0
 72
  2000
 73
     1
 74
     3
 75
     0
 76
     0
 77
     0
 78
     0
281
     0
 65
     1
110
0.0
120
0.0
130
0.0
111
1.0
121
0.0
131
0.0
112
0.0
122
1.0
132
0.0
 79
     0
146
0.0
  0
ENDTAB
  0
TABLE
  2
LTYPE
  5
5
330
0
100
AcDbSymbolTable
 70
     6
  0
LTYPE
  5
14
330
5
100
AcDbSymbolTableRecord
100
AcDbLinetypeTableRecord
  2
ByBlock
 70
     0
  3

 72
    65
 73
     0
 40
0.0
  0
LTYPE
  5
15
330
5
100
AcDbSymbolTableRecord
100
AcDbLinetypeTableRecord
  2
ByLayer
 70
     0
  3

 72
    65
 73
     0
 40
0.0
  0
LTYPE
  5
16
330
5
100
AcDbSymbolTableRecord
100
AcDbLinetypeTableRecord
  2
Continuous
 70
     0
  3
Solid line
 72
    65
 73
     0
 40
0.0
  0
LTYPE
  5
6E
330
5
100
AcDbSymbolTableRecord
100
AcDbLinetypeTableRecord
  2
HIDDEN
 70
     0
  3
Hidden __ __ __ __ __ __ __ __ __ __ __ __ __ __
 72
    65
 73
     2
 40
1.905
 49
1.27
 74
     0
 49
-0.635
 74
     0
  0
LTYPE
  5
6F
330
5
100
AcDbSymbolTableRecord
100
AcDbLinetypeTableRecord
  2
PHANTOM
 70
     0
  3
Phantom ______  __  __  ______  __  __  ______
 72
    65
 73
     6
 40
12.7
 49
6.35
 74
     0
 49
-1.27
 74
     0
 49
1.27
 74
     0
 49
-1.27
 74
     0
 49
1.27
 74
     0
 49
-1.27
 74
     0
  0
LTYPE
  5
70
330
5
100
AcDbSymbolTableRecord
100
AcDbLinetypeTableRecord
  2
CENTER
 70
     0
  3
Center ____ _ ____ _ ____ _ ____ _ ____ _ ____
 72
    65
 73
     4
 40
10.16
 49
6.35
 74
     0
 49
-1.27
 74
     0
 49
1.27
 74
     0
 49
-1.27
 74
     0
  0
LTYPE
  5
71
330
5
100
AcDbSymbolTableRecord
100
AcDbLinetypeTableRecord
  2
CENTERX2
 70
     0
  3
Center (2x) ________  __  ________  __  _____
 72
    65
 73
     4
 40
20.32
 49
12.7
 74
     0
 49
-2.54
 74
     0
 49
2.54
 74
     0
 49
-2.54
 74
     0
  0
LTYPE
  5
72
330
5
100
AcDbSymbolTableRecord
100
AcDbLinetypeTableRecord
  2
DOT2
 70
     0
  3
Dot (.5x) ........................................
 72
    65
 73
     2
 40
0.635
 49
0.0
 74
     0
 49
-0.635
 74
     0
  0
ENDTAB
  0
TABLE
  2
LAYER
  5
2
330
0
100
AcDbSymbolTable
 70
    17
  0
LAYER
  5
10
330
2
100
AcDbSymbolTableRecord
100
AcDbLayerTableRecord
  2
0
 70
     0
 62
     7
  6
Continuous
370
    -3
390
F
  0
LAYER
  5
73
330
2
100
AcDbSymbolTableRecord
100
AcDbLayerTableRecord
  2
FORMAT
 70
     0
 62
     7
  6
Continuous
370
    -3
390
F
  0
LAYER
  5
74
330
2
100
AcDbSymbolTableRecord
100
AcDbLayerTableRecord
  2
YARDIMCI_GEOMETRI
 70
     0
 62
    -6
  6
Continuous
290
     0
370
    -3
390
F
  0
LAYER
  5
75
330
2
100
AcDbSymbolTableRecord
100
AcDbLayerTableRecord
  2
SAYFA_CERCEVESI
 70
     0
 62
     7
  6
Continuous
370
    25
390
F
  0
LAYER
  5
76
330
2
100
AcDbSymbolTableRecord
100
AcDbLayerTableRecord
  2
ANTET
 70
     0
 62
     7
  6
Continuous
370
    -3
390
F
  0
LAYER
  5
77
330
2
100
AcDbSymbolTableRecord
100
AcDbLayerTableRecord
  2
OLCU
 70
     0
 62
   150
  6
Continuous
370
    -3
390
F
  0
LAYER
  5
78
330
2
100
AcDbSymbolTableRecord
100
AcDbLayerTableRecord
  2
METIN
 70
     0
 62
    96
  6
Continuous
370
    -3
390
F
  0
LAYER
  5
79
330
2
100
AcDbSymbolTableRecord
100
AcDbLayerTableRecord
  2
BALON
 70
     0
 62
     5
  6
Continuous
370
    -3
390
F
  0
LAYER
  5
7A
330
2
100
AcDbSymbolTableRecord
100
AcDbLayerTableRecord
  2
VURGU
 70
     0
 62
     7
  6
Continuous
370
    -3
390
F
  0
LAYER
  5
7B
330
2
100
AcDbSymbolTableRecord
100
AcDbLayerTableRecord
  2
SILIK
 70
     0
 62
     7
  6
Continuous
370
    -3
390
F
  0
LAYER
  5
7C
330
2
100
AcDbSymbolTableRecord
100
AcDbLayerTableRecord
  2
MODEL
 70
     0
 62
     7
  6
Continuous
370
    -3
390
F
  0
LAYER
  5
7D
330
2
100
AcDbSymbolTableRecord
100
AcDbLayerTableRecord
  2
DETAYLANDıRMA
 70
     0
 62
   190
  6
Continuous
370
    -3
390
F
  0
LAYER
  5
7E
330
2
100
AcDbSymbolTableRecord
100
AcDbLayerTableRecord
  2
TOLERANS
 70
     0
 62
   230
  6
Continuous
370
    -3
390
F
  0
LAYER
  5
7F
330
2
100
AcDbSymbolTableRecord
100
AcDbLayerTableRecord
  2
MERKEZ_CIZGILERI
 70
     0
 62
    30
  6
Continuous
370
    -3
390
F
  0
LAYER
  5
80
330
2
100
AcDbSymbolTableRecord
100
AcDbLayerTableRecord
  2
KESIT-DETAY_CIZGILERI
 70
     0
 62
     7
  6
Continuous
370
    -3
390
F
  0
LAYER
  5
81
330
2
100
AcDbSymbolTableRecord
100
AcDbLayerTableRecord
  2
\U+041E\U+0421\U+0415\U+0412\U+042B\U+0415
 70
     0
 62
     7
  6
Continuous
370
    -3
390
F
  0
LAYER
  5
82
330
2
100
AcDbSymbolTableRecord
100
AcDbLayerTableRecord
  2
\U+0412\U+041E\U+0414\U+042F\U+041D\U+042B\U+0415_\U+0417\U+041D\U+0410\U+041A\U+0418
 70
     0
 62
    11
  6
Continuous
370
    -3
390
F
  0
ENDTAB
  0
TABLE
  2
STYLE
  5
3
330
0
100
AcDbSymbolTable
 70
     1
  0
STYLE
  5
11
330
3
100
AcDbSymbolTableRecord
100
AcDbTextStyleTableRecord
  2
Standard
 70
     0
 40
0.0
 41
1.0
 50
0.0
 71
     0
 42
3.5
  3
txt
  4

  0
ENDTAB
  0
TABLE
  2
VIEW
  5
6
330
0
100
AcDbSymbolTable
 70
     0
  0
ENDTAB
  0
TABLE
  2
UCS
  5
7
330
0
100
AcDbSymbolTable
 70
     0
  0
ENDTAB
  0
TABLE
  2
APPID
  5
9
330
0
100
AcDbSymbolTable
 70
     1
  0
APPID
  5
12
330
9
100
AcDbSymbolTableRecord
100
AcDbRegAppTableRecord
  2
ACAD
 70
     0
  0
ENDTAB
  0
TABLE
  2
DIMSTYLE
  5
A
330
0
100
AcDbSymbolTable
 70
     1
100
AcDbDimStyleTable
  0
DIMSTYLE
105
27
330
A
100
AcDbSymbolTableRecord
100
AcDbDimStyleTableRecord
  2
ISO-25
 70
     0
 41
2.5
 42
0.625
 43
3.75
 44
1.25
 73
     0
 74
     0
 77
     1
 78
     8
140
2.5
141
2.5
143
0.0393700787
147
0.625
171
     3
172
     1
178
     0
271
     2
272
     2
274
     3
278
    44
283
     0
284
     8
340
11
  0
ENDTAB
  0
TABLE
  2
BLOCK_RECORD
  5
1
330
0
100
AcDbSymbolTable
 70
     3
  0
BLOCK_RECORD
  5
1F
330
1
100
AcDbSymbolTableRecord
100
AcDbBlockTableRecord
  2
*Model_Space
340
22
  0
BLOCK_RECORD
  5
1B
330
1
100
AcDbSymbolTableRecord
100
AcDbBlockTableRecord
  2
*Paper_Space
340
1E
  0
BLOCK_RECORD
  5
23
330
1
100
AcDbSymbolTableRecord
100
AcDbBlockTableRecord
  2
*Paper_Space0
340
26
  0
BLOCK_RECORD
  5
A7
330
1
100
AcDbSymbolTableRecord
100
AcDbBlockTableRecord
  2
SW_CENTERMARKSYMBOL_0
340
0
102
{BLKREFS
331
B2
102
}
  0
BLOCK_RECORD
  5
C7
330
1
100
AcDbSymbolTableRecord
100
AcDbBlockTableRecord
  2
SW_CENTERMARKSYMBOL_1
340
0
102
{BLKREFS
331
D2
102
}
  0
ENDTAB
  0
ENDSEC
  0
SECTION
  2
BLOCKS
  0
BLOCK
  5
20
330
1F
100
AcDbEntity
  8
0
100
AcDbBlockBegin
  2
*Model_Space
 70
     0
 10
0.0
 20
0.0
 30
0.0
  3
*Model_Space
  1

  0
ENDBLK
  5
21
330
1F
100
AcDbEntity
  8
0
100
AcDbBlockEnd
  0
BLOCK
  5
1C
330
1B
100
AcDbEntity
 67
     1
  8
0
100
AcDbBlockBegin
  2
*Paper_Space
 70
     0
 10
0.0
 20
0.0
 30
0.0
  3
*Paper_Space
  1

  0
ENDBLK
  5
1D
330
1B
100
AcDbEntity
 67
     1
  8
0
100
AcDbBlockEnd
  0
BLOCK
  5
24
330
23
100
AcDbEntity
  8
0
100
AcDbBlockBegin
  2
*Paper_Space0
 70
     0
 10
0.0
 20
0.0
 30
0.0
  3
*Paper_Space0
  1

  0
ENDBLK
  5
25
330
23
100
AcDbEntity
  8
0
100
AcDbBlockEnd
  0
BLOCK
  5
A8
330
A7
100
AcDbEntity
  8
0
100
AcDbBlockBegin
  2
SW_CENTERMARKSYMBOL_0
 70
     0
 10
0.0
 20
0.0
 30
0.0
  3
SW_CENTERMARKSYMBOL_0
  1

  0
LINE
  5
AA
330
A7
100
AcDbEntity
  8
FORMAT
 62
     0
100
AcDbLine
 10
0.0
 20
0.0
 30
0.0
 11
0.0
 21
2.5
 31
0.0
  0
LINE
  5
AB
330
A7
100
AcDbEntity
  8
FORMAT
 62
     0
100
AcDbLine
 10
0.0
 20
0.0
 30
0.0
 11
-2.5
 21
0.0
 31
0.0
  0
LINE
  5
AC
330
A7
100
AcDbEntity
  8
FORMAT
 62
     0
100
AcDbLine
 10
0.0
 20
0.0
 30
0.0
 11
0.0
 21
-2.5
 31
0.0
  0
LINE
  5
AD
330
A7
100
AcDbEntity
  8
FORMAT
 62
     0
100
AcDbLine
 10
0.0
 20
0.0
 30
0.0
 11
2.5
 21
0.0
 31
0.0
  0
LINE
  5
AE
330
A7
100
AcDbEntity
  8
FORMAT
 62
     0
100
AcDbLine
 10
0.0
 20
5.0
 30
0.0
 11
0.0
 21
82.5
 31
0.0
  0
LINE
  5
AF
330
A7
100
AcDbEntity
  8
FORMAT
 62
     0
100
AcDbLine
 10
-5.0
 20
0.0
 30
0.0
 11
-82.5
 21
0.0
 31
0.0
  0
LINE
  5
B0
330
A7
100
AcDbEntity
  8
FORMAT
 62
     0
100
AcDbLine
 10
0.0
 20
-5.0
 30
0.0
 11
0.0
 21
-82.5
 31
0.0
  0
LINE
  5
B1
330
A7
100
AcDbEntity
  8
FORMAT
 62
     0
100
AcDbLine
 10
5.0
 20
0.0
 30
0.0
 11
82.5
 21
0.0
 31
0.0
  0
ENDBLK
  5
A9
330
A7
100
AcDbEntity
  8
0
100
AcDbBlockEnd
  0
BLOCK
  5
C8
330
C7
100
AcDbEntity
  8
0
100
AcDbBlockBegin
  2
SW_CENTERMARKSYMBOL_1
 70
     0
 10
0.0
 20
0.0
 30
0.0
  3
SW_CENTERMARKSYMBOL_1
  1

  0
LINE
  5
CA
330
C7
100
AcDbEntity
  8
FORMAT
 62
     0
100
AcDbLine
 10
0.0
 20
0.0
 30
0.0
 11
0.0
 21
2.5
 31
0.0
  0
LINE
  5
CB
330
C7
100
AcDbEntity
  8
FORMAT
 62
     0
100
AcDbLine
 10
0.0
 20
0.0
 30
0.0
 11
-2.5
 21
0.0
 31
0.0
  0
LINE
  5
CC
330
C7
100
AcDbEntity
  8
FORMAT
 62
     0
100
AcDbLine
 10
0.0
 20
0.0
 30
0.0
 11
0.0
 21
-2.5
 31
0.0
  0
LINE
  5
CD
330
C7
100
AcDbEntity
  8
FORMAT
 62
     0
100
AcDbLine
 10
0.0
 20
0.0
 30
0.0
 11
2.5
 21
0.0
 31
0.0
  0
LINE
  5
CE
330
C7
100
AcDbEntity
  8
FORMAT
 62
     0
100
AcDbLine
 10
0.0
 20
5.0
 30
0.0
 11
0.0
 21
82.5
 31
0.0
  0
LINE
  5
CF
330
C7
100
AcDbEntity
  8
FORMAT
 62
     0
100
AcDbLine
 10
-5.0
 20
0.0
 30
0.0
 11
-82.5
 21
0.0
 31
0.0
  0
LINE
  5
D0
330
C7
100
AcDbEntity
  8
FORMAT
 62
     0
100
AcDbLine
 10
0.0
 20
-5.0
 30
0.0
 11
0.0
 21
-82.5
 31
0.0
  0
LINE
  5
D1
330
C7
100
AcDbEntity
  8
FORMAT
 62
     0
100
AcDbLine
 10
5.0
 20
0.0
 30
0.0
 11
82.5
 21
0.0
 31
0.0
  0
ENDBLK
  5
C9
330
C7
100
AcDbEntity
  8
0
100
AcDbBlockEnd
  0
ENDSEC
  0
SECTION
  2
ENTITIES
  0
LINE
  5
83
330
1F
100
AcDbEntity
  8
0
  6
Continuous
 62
     7
370
    25
100
AcDbLine
 10
31.5894805308
 20
96.998095489
 30
0.0
 11
31.5894805308
 21
-28.8648158546
 31
0.0
  0
LINE
  5
84
330
1F
100
AcDbEntity
  8
0
  6
Continuous
 62
     7
370
    25
100
AcDbLine
 10
191.5894769546
 20
-28.8648158546
 30
0.0
 11
191.5894769546
 21
96.998095489
 31
0.0
  0
ARC
  5
85
330
1F
100
AcDbEntity
  8
0
  6
Continuous
 62
     7
370
    25
100
AcDbCircle
 10
191.5894787427
 20
96.9980991555
 30
0.0
 40
160.0
100
AcDbArc
 50
135.0
 51
180.0
  0
LINE
  5
86
330
1F
100
AcDbEntity
  8
0
  6
Continuous
 62
     7
370
    25
100
AcDbLine
 10
169.0209344443
 20
300.7037192349
 30
0.0
 11
78.4523919638
 21
210.1351767544
 31
0.0
  0
LINE
  5
87
330
1F
100
AcDbEntity
  8
0
  6
Continuous
 62
     7
370
    25
100
AcDbLine
 10
191.5894769546
 20
96.998095489
 30
0.0
 11
282.158019435
 21
187.5666379694
 31
0.0
  0
LINE
  5
88
330
1F
100
AcDbEntity
  8
0
  6
Continuous
 62
     7
370
    25
100
AcDbLine
 10
111.5894787427
 20
-28.8648158546
 30
0.0
 11
191.5894769546
 21
-28.8648158546
 31
0.0
  0
LINE
  5
89
330
1F
100
AcDbEntity
  8
0
  6
Continuous
 62
     7
370
    25
100
AcDbLine
 10
31.5894805308
 20
-28.8648158546
 30
0.0
 11
111.5894787427
 21
-28.8648158546
 31
0.0
  0
LWPOLYLINE
  5
8A
330
1F
100
AcDbEntity
  8
0
  6
Continuous
 62
     7
370
    25
100
AcDbPolyline
 90
       27
 70
   128
 43
0.0
 10
225.5894788023
 20
244.1351860527
 10
229.0718876239
 20
240.6527846817
 10
232.5410865661
 20
237.1835857395
 10
235.9839179035
 20
233.7407320504
 10
239.3873207685
 20
230.337336636
 10
242.7383833047
 20
226.9862740998
 10
246.0243873712
 20
223.7002700333
 10
249.2328904983
 20
220.4917818074
 10
252.351688635
 20
217.3729687695
 10
255.3689800616
 20
214.3556773428
 10
258.2733057853
 20
211.4513665203
 10
261.0536389466
 20
208.6710184578
 10
263.6994593259
 20
206.0251980786
 10
266.2007086393
 20
203.5239487652
 10
268.5479097482
 20
201.1767476563
 10
270.7321517583
 20
198.9925056462
 10
272.745149624
 20
196.9795077805
 10
274.5792739507
 20
195.1453834538
 10
276.2275658961
 20
193.4971064095
 10
277.6837669726
 20
192.040905333
 10
278.9423488494
 20
190.7823085551
 10
279.998558056
 20
189.7261142496
 10
280.8483712789
 20
188.8763010268
 10
281.4885549661
 20
188.2361024384
 10
281.9167100307
 20
187.8079473738
 10
282.1311973449
 20
187.5934749607
 10
282.158019435
 20
187.5666379694
  0
LWPOLYLINE
  5
8B
330
1F
100
AcDbEntity
  8
0
  6
Continuous
 62
     7
370
    25
100
AcDbPolyline
 90
       27
 70
   128
 43
0.0
 10
169.0209344443
 20
300.7037192349
 10
169.047763985
 20
300.6768971447
 10
169.262247574
 20
300.4624098305
 10
169.6903989133
 20
300.0342696671
 10
170.3305937763
 20
299.3940561775
 10
171.1804032739
 20
298.544272757
 10
172.2366087552
 20
297.4880486492
 10
173.4951943573
 20
296.2294667725
 10
174.9513991591
 20
294.773265696
 10
176.5996836539
 20
293.1249886517
 10
178.4338079806
 20
291.290864325
 10
180.4468058463
 20
289.2778664593
 10
182.6310478564
 20
287.0936244492
 10
184.9782489654
 20
284.7464233403
 10
187.4794982787
 20
282.2451740269
 10
190.1253112074
 20
279.5993536476
 10
192.9056518193
 20
276.8190055851
 10
195.809977543
 20
273.9146798615
 10
198.8272689696
 20
270.897403336
 10
201.9460745569
 20
267.7785902981
 10
205.1545627829
 20
264.5701020722
 10
208.4405742999
 20
261.2840980057
 10
211.7916368362
 20
257.9330354695
 10
215.1950397011
 20
254.5296400551
 10
218.637863588
 20
251.0867863659
 10
222.1070699807
 20
247.6175874237
 10
225.5894788023
 20
244.1351860527
  0
LINE
  5
8C
330
1F
100
AcDbEntity
  8
0
  6
Continuous
 62
     1
370
    25
100
AcDbLine
 10
31.5894805308
 20
96.998095489
 30
0.0
 11
191.5894769546
 21
96.998095489
 31
0.0
  0
LWPOLYLINE
  5
8D
330
1F
100
AcDbEntity
  8
0
  6
Continuous
 62
     1
370
    25
100
AcDbPolyline
 90
       52
 70
   128
 43
0.0
 10
78.4523919638
 20
210.1351767544
 10
78.5596840497
 20
210.0278883938
 10
78.8811542507
 20
209.7064256434
 10
79.4155806717
 20
209.1719954972
 10
80.1609367546
 20
208.4266394142
 10
81.1143968668
 20
207.4731886153
 10
82.2723418888
 20
206.31523428
 10
83.6303797033
 20
204.9572020535
 10
85.1833600964
 20
203.404217935
 10
86.9253915217
 20
201.6621827845
 10
88.8498671766
 20
199.7377127175
 10
90.9494836297
 20
197.6380944018
 10
93.2162780728
 20
195.3712999586
 10
95.6416543987
 20
192.9459273581
 10
98.2164074149
 20
190.3711706166
 10
100.9307731356
 20
187.6568048958
 10
103.7744548585
 20
184.8131268982
 10
106.7366650742
 20
181.8509101633
 10
109.8061671428
 20
178.7814050679
 10
112.9713175533
 20
175.6162643198
 10
116.2201095786
 20
172.3674684529
 10
119.5402196091
 20
169.0473556284
 10
122.9190532532
 20
165.6685173277
 10
126.3437936496
 20
162.2437834505
 10
129.8014488485
 20
158.7861329083
 10
133.2789048966
 20
155.3086787228
 10
136.7629677471
 20
151.8246084217
 10
140.2404219326
 20
148.3471542362
 10
143.6980799254
 20
144.889503694
 10
147.1228175279
 20
141.4647549156
 10
150.5016521033
 20
138.0859315161
 10
153.8217612024
 20
134.7658186917
 10
157.0705533441
 20
131.5170228247
 10
160.235705268
 20
128.3518671755
 10
163.3052066382
 20
125.2823769812
 10
166.2674159225
 20
122.3201602463
 10
169.1110976454
 20
119.4764822487
 10
171.8254633661
 20
116.762116528
 10
174.4002201077
 20
114.1873597864
 10
176.8255927082
 20
111.7619871859
 10
179.0923871513
 20
109.4951927428
 10
181.192005467
 20
107.3955744271
 10
183.1164829846
 20
105.47110436
 10
184.8585106846
 20
103.7290692095
 10
186.4114948031
 20
102.176085091
 10
187.7695344802
 20
100.8180528645
 10
188.9274739143
 20
99.6600985293
 10
189.8809321638
 20
98.7066477303
 10
190.6262882467
 20
97.9612916474
 10
191.160718393
 20
97.4268615011
 10
191.482188594
 20
97.1053838496
 10
191.5894769546
 20
96.998095489
  0
LINE
  5
8E
330
1F
100
AcDbEntity
  8
0
  6
Continuous
 62
     7
370
    25
100
AcDbLine
 10
-272.5045970674
 20
244.1351860527
 30
0.0
 11
-272.5045970674
 21
153.5666435723
 31
0.0
  0
LINE
  5
8F
330
1F
100
AcDbEntity
  8
0
  6
Continuous
 62
     7
370
    25
100
AcDbLine
 10
-112.5046006437
 20
153.5666435723
 30
0.0
 11
-112.5046006437
 21
244.1351860527
 31
0.0
  0
LINE
  5
90
330
1F
100
AcDbEntity
  8
0
  6
Continuous
 62
     7
370
    25
100
AcDbLine
 10
-272.5045970674
 20
153.5666435723
 30
0.0
 11
-272.5045970674
 21
96.998095489
 31
0.0
  0
LINE
  5
91
330
1F
100
AcDbEntity
  8
0
  6
Continuous
 62
     7
370
    25
100
AcDbLine
 10
-112.5046006437
 20
96.998095489
 30
0.0
 11
-112.5046006437
 21
153.5666435723
 31
0.0
  0
LINE
  5
92
330
1F
100
AcDbEntity
  8
0
  6
Continuous
 62
     7
370
    25
100
AcDbLine
 10
-272.5045970674
 20
96.998095489
 30
0.0
 11
-272.5045970674
 21
-28.8648158546
 31
0.0
  0
LINE
  5
93
330
1F
100
AcDbEntity
  8
0
  6
Continuous
 62
     7
370
    25
100
AcDbLine
 10
-112.5046006437
 20
-28.8648158546
 30
0.0
 11
-112.5046006437
 21
96.998095489
 31
0.0
  0
LWPOLYLINE
  5
94
330
1F
100
AcDbEntity
  8
0
  6
Continuous
 62
     7
370
    25
100
AcDbPolyline
 90
      103
 70
   128
 43
0.0
 10
-272.5045970674
 20
244.1351860527
 10
-272.3528659935
 20
240.6527846817
 10
-271.8982390161
 20
237.1835857395
 10
-271.1424446697
 20
233.7407320504
 10
-270.088351428
 20
230.337336636
 10
-268.7399602528
 20
226.9862740998
 10
-267.1023747916
 20
223.7002700333
 10
-265.18182373
 20
220.4917818074
 10
-262.985571384
 20
217.3729687695
 10
-260.5219698544
 20
214.3556773428
 10
-257.8003547187
 20
211.4513665203
 10
-254.8310450311
 20
208.6710184578
 10
-251.62531352
 20
206.0251980786
 10
-248.1953158076
 20
203.5239487652
 10
-244.554064333
 20
201.1767476563
 10
-240.7153687473
 20
198.9925056462
 10
-236.6937949355
 20
196.9795077805
 10
-232.5045979614
 20
195.1453834538
 10
-228.1636661883
 20
193.4971064095
 10
-223.6874691243
 20
192.040905333
 10
-219.0929829176
 20
190.7823085551
 10
-214.3976382013
 20
189.7261142496
 10
-209.6192455883
 20
188.8763010268
 10
-204.77593141
 20
188.2361024384
 10
-199.8860674012
 20
187.8079473738
 10
-194.9682036447
 20
187.5934749607
 10
-190.0409940663
 20
187.5934749607
 10
-185.1231303099
 20
187.8079473738
 10
-180.233266301
 20
188.2361024384
 10
-175.3899521227
 20
188.8763010268
 10
-170.6115595098
 20
189.7261142496
 10
-165.9162147935
 20
190.7823085551
 10
-161.3217285867
 20
192.040905333
 10
-156.8455315228
 20
193.4971064095
 10
-152.5045997496
 20
195.1453834538
 10
-148.3154027755
 20
196.9795077805
 10
-144.2938289638
 20
198.9925056462
 10
-140.455133378
 20
201.1767476563
 10
-136.8138819034
 20
203.5239487652
 10
-133.3838841911
 20
206.0251980786
 10
-130.1781526799
 20
208.6710184578
 10
-127.2088429923
 20
211.4513665203
 10
-124.4872278567
 20
214.3556773428
 10
-122.0236263271
 20
217.3729687695
 10
-119.827373981
 20
220.4917818074
 10
-117.9068229194
 20
223.7002700333
 10
-116.2692374582
 20
226.9862740998
 10
-114.920846283
 20
230.337336636
 10
-113.8667530413
 20
233.7407320504
 10
-113.110958695
 20
237.1835857395
 10
-112.6563317175
 20
240.6527846817
 10
-112.5046006437
 20
244.1351860527
 10
-112.6563317175
 20
247.6175874237
 10
-113.110958695
 20
251.0867863659
 10
-113.8667530413
 20
254.5296400551
 10
-114.920846283
 20
257.9330354695
 10
-116.2692374582
 20
261.2840980057
 10
-117.9068229194
 20
264.5701020722
 10
-119.827373981
 20
267.7785902981
 10
-122.0236263271
 20
270.897403336
 10
-124.4872278567
 20
273.9146798615
 10
-127.2088429923
 20
276.8190055851
 10
-130.1781526799
 20
279.5993536476
 10
-133.3838841911
 20
282.2451740269
 10
-136.8138819034
 20
284.7464233403
 10
-140.455133378
 20
287.0936244492
 10
-144.2938289638
 20
289.2778664593
 10
-148.3154027755
 20
291.290864325
 10
-152.5045997496
 20
293.1249886517
 10
-156.8455315228
 20
294.773265696
 10
-161.3217285867
 20
296.2294667725
 10
-165.9162147935
 20
297.4880486492
 10
-170.6115595098
 20
298.544272757
 10
-175.3899521227
 20
299.3940561775
 10
-180.233266301
 20
300.0342696671
 10
-185.1231303099
 20
300.4624098305
 10
-190.0409940663
 20
300.6768971447
 10
-194.9682036447
 20
300.6768971447
 10
-199.8860674012
 20
300.4624098305
 10
-204.77593141
 20
300.0342696671
 10
-209.6192455883
 20
299.3940561775
 10
-214.3976382013
 20
298.544272757
 10
-219.0929829176
 20
297.4880486492
 10
-223.6874691243
 20
296.2294667725
 10
-228.1636661883
 20
294.773265696
 10
-232.5045979614
 20
293.1249886517
 10
-236.6937949355
 20
291.290864325
 10
-240.7153687473
 20
289.2778664593
 10
-244.554064333
 20
287.0936244492
 10
-248.1953158076
 20
284.7464233403
 10
-251.62531352
 20
282.2451740269
 10
-254.8310450311
 20
279.5993536476
 10
-257.8003547187
 20
276.8190055851
 10
-260.5219698544
 20
273.9146798615
 10
-262.985571384
 20
270.897403336
 10
-265.18182373
 20
267.7785902981
 10
-267.1023747916
 20
264.5701020722
 10
-268.7399602528
 20
261.2840980057
 10
-270.088351428
 20
257.9330354695
 10
-271.1424446697
 20
254.5296400551
 10
-271.8982390161
 20
251.0867863659
 10
-272.3528659935
 20
247.6175874237
 10
-272.5045970674
 20
244.1351860527
  0
LWPOLYLINE
  5
95
330
1F
100
AcDbEntity
  8
0
  6
Continuous
 62
     7
370
    25
100
AcDbPolyline
 90
       96
 70
   128
 43
0.0
 10
-263.0046001668
 20
244.1351860527
 10
-262.8504625554
 20
247.429862595
 10
-262.3887128229
 20
250.7101446156
 10
-261.6213849778
 20
253.961667395
 10
-260.5518243308
 20
257.1702152256
 10
-259.1847172971
 20
260.3217810158
 10
-257.5260243411
 20
263.4025662903
 10
-255.5830172296
 20
266.3991003994
 10
-253.3641821737
 20
269.2982703213
 10
-250.8792198296
 20
272.0874100689
 10
-248.1390043194
 20
274.7543304924
 10
-245.1555124517
 20
277.2873490814
 10
-241.9417939181
 20
279.6754091744
 10
-238.5118967886
 20
281.908050156
 10
-234.8808190818
 20
283.9755266671
 10
-231.0644454355
 20
285.8688086037
 10
-227.0794576998
 20
287.579581118
 10
-222.9432809199
 20
289.1003638272
 10
-218.6740051056
 20
290.4245704178
 10
-214.2902976866
 20
291.5463298325
 10
-209.8113252814
 20
292.4607842926
 10
-205.2566763978
 20
293.1639104847
 10
-200.6462655063
 20
293.6526685719
 10
-196.0002536452
 20
293.9248829846
 10
-191.338955754
 20
293.9793914322
 10
-186.6827552239
 20
293.8159554962
 10
-182.052011698
 20
293.4352606301
 10
-177.4669746901
 20
292.8389757637
 10
-172.9476946439
 20
292.0297533039
 10
-168.5139304991
 20
291.0110801224
 10
-164.1850705291
 20
289.7874265675
 10
-159.9800466592
 20
288.3641570572
 10
-155.9172450597
 20
286.7474704747
 10
-152.0144297774
 20
284.9444597725
 10
-148.2886663671
 20
282.9630225663
 10
-144.7562492485
 20
280.811771727
 10
-141.4326234753
 20
278.500154591
 10
-138.332321405
 20
276.0382741455
 10
-135.4688993688
 20
273.436889029
 10
-132.8548817928
 20
270.7073539261
 10
-130.5016978676
 20
267.8616493706
 10
-128.4196368451
 20
264.9122029309
 10
-126.6178033347
 20
261.8718594078
 10
-125.1040763254
 20
258.7540000443
 10
-123.8850719328
 20
255.5722146992
 10
-122.9661247726
 20
252.3403912548
 10
-122.3512507076
 20
249.0727156166
 10
-122.0431468482
 20
245.7834332947
 10
-122.0431468482
 20
242.4869388108
 10
-122.3512507076
 20
239.1976564888
 10
-122.9661247726
 20
235.9299808506
 10
-123.8850719328
 20
232.6981574063
 10
-125.1040763254
 20
229.5163720612
 10
-126.6178033347
 20
226.3984828953
 10
-128.4196368451
 20
223.3581691746
 10
-130.5016978676
 20
220.4087227349
 10
-132.8548817928
 20
217.5630032782
 10
-135.4688993688
 20
214.8334830765
 10
-138.332321405
 20
212.2320979599
 10
-141.4326234753
 20
209.7702026133
 10
-144.7562492485
 20
207.4585854773
 10
-148.2886663671
 20
205.3073495392
 10
-152.0144297774
 20
203.3258974318
 10
-155.9172450597
 20
201.5228867296
 10
-159.9800466592
 20
199.9062150482
 10
-164.1850705291
 20
198.482945538
 10
-168.5139304991
 20
197.2592919831
 10
-172.9476946439
 20
196.2406188015
 10
-177.4669746901
 20
195.4313814406
 10
-182.052011698
 20
194.8351114754
 10
-186.6827552239
 20
194.4544166092
 10
-191.338955754
 20
194.2909657721
 10
-196.0002536452
 20
194.3454742197
 10
-200.6462655063
 20
194.6176886324
 10
-205.2566763978
 20
195.1064467196
 10
-209.8113252814
 20
195.8095878128
 10
-214.2902976866
 20
196.724042273
 10
-218.6740051056
 20
197.8458165888
 10
-222.9432809199
 20
199.1699933771
 10
-227.0794576998
 20
200.6908058886
 10
-231.0644454355
 20
202.4015784029
 10
-234.8808190818
 20
204.2948454384
 10
-238.5118967886
 20
206.3623219494
 10
-241.9417939181
 20
208.5949629311
 10
-245.1555124517
 20
210.983023024
 10
-248.1390043194
 20
213.516041613
 10
-250.8792198296
 20
216.1829620365
 10
-253.3641821737
 20
218.9721017842
 10
-255.5830172296
 20
221.871271706
 10
-257.5260243411
 20
224.8678058152
 10
-259.1847172971
 20
227.9485910897
 10
-260.5518243308
 20
231.1001270775
 10
-261.6213849778
 20
234.3087047104
 10
-262.3887128229
 20
237.5602274899
 10
-262.8504625554
 20
240.8405095104
 10
-263.0046001668
 20
244.1351860527
  0
LINE
  5
96
330
1F
100
AcDbEntity
  8
0
  6
Continuous
 62
     7
370
    25
100
AcDbLine
 10
-272.5045970674
 20
-28.8648158546
 30
0.0
 11
-112.5046006437
 21
-28.8648158546
 31
0.0
  0
LWPOLYLINE
  5
97
330
1F
100
AcDbEntity
  8
0
  6
Continuous
 62
     1
370
    25
100
AcDbPolyline
 90
       27
 70
   128
 43
0.0
 10
-192.5045988555
 20
96.998095489
 10
-187.5797264311
 20
97.1053838496
 10
-182.6735354061
 20
97.4268615011
 10
-177.8046377967
 20
97.9612916474
 10
-172.9915003325
 20
98.7066477303
 10
-168.2523853178
 20
99.6600985293
 10
-163.6052663471
 20
100.8180528645
 10
-159.0677714939
 20
102.176085091
 10
-154.6571134622
 20
103.7290692095
 10
-150.3900243933
 20
105.47110436
 10
-146.2826906736
 20
107.3955744271
 10
-142.3506951924
 20
109.4951927428
 10
-138.6089465614
 20
111.7619871859
 10
-135.0716455872
 20
114.1873597864
 10
-131.7522070403
 20
116.762116528
 10
-128.6632186766
 20
119.4764822487
 10
-125.8164114351
 20
122.3201602463
 10
-123.2225663061
 20
125.2823769812
 10
-120.8915329571
 20
128.3518671755
 10
-118.8321552272
 20
131.5170228247
 10
-117.0522413249
 20
134.7658186917
 10
-115.5585489268
 20
138.0859315161
 10
-114.3567330237
 20
141.4647549156
 10
-113.4513608213
 20
144.889503694
 10
-112.8458670373
 20
148.3471542362
 10
-112.5425390001
 20
151.8246084217
 10
-112.5046006437
 20
153.5666435723
  0
LWPOLYLINE
  5
98
330
1F
100
AcDbEntity
  8
0
  6
Continuous
 62
     1
370
    25
100
AcDbPolyline
 90
       27
 70
   128
 43
0.0
 10
-272.5045970674
 20
153.5666435723
 10
-272.466658711
 20
151.8246084217
 10
-272.1633306737
 20
148.3471542362
 10
-271.5578368898
 20
144.889503694
 10
-270.6524646874
 20
141.4647549156
 10
-269.4506487842
 20
138.0859315161
 10
-267.9569563861
 20
134.7658186917
 10
-266.1770424838
 20
131.5170228247
 10
-264.1176647539
 20
128.3518671755
 10
-261.7866314049
 20
125.2823769812
 10
-259.1927862759
 20
122.3201602463
 10
-256.3459790344
 20
119.4764822487
 10
-253.2569906707
 20
116.762116528
 10
-249.9375521238
 20
114.1873597864
 10
-246.4002511497
 20
111.7619871859
 10
-242.6585025187
 20
109.4951927428
 10
-238.7265070374
 20
107.3955744271
 10
-234.6191733177
 20
105.47110436
 10
-230.3520842488
 20
103.7290692095
 10
-225.9414262171
 20
102.176085091
 10
-221.403931364
 20
100.8180528645
 10
-216.7568123932
 20
99.6600985293
 10
-212.0176973785
 20
98.7066477303
 10
-207.2045599143
 20
97.9612916474
 10
-202.3356623049
 20
97.4268615011
 10
-197.42947128
 20
97.1053838496
 10
-192.5045988555
 20
96.998095489
  0
ARC
  5
99
330
1F
100
AcDbEntity
  8
0
  6
Continuous
 62
     1
370
    25
100
AcDbCircle
 10
-192.5045988555
 20
106.5802910524
 30
0.0
 40
96.86479018340474
100
AcDbArc
 50
72.2830220506
 51
107.7169779494
  0
LINE
  5
9A
330
1F
100
AcDbEntity
  8
0
  6
Continuous
 62
     1
370
    25
100
AcDbLine
 10
-192.5045988555
 20
96.998095489
 30
0.0
 11
-112.5046006437
 21
96.998095489
 31
0.0
  0
LINE
  5
9B
330
1F
100
AcDbEntity
  8
0
  6
Continuous
 62
     1
370
    25
100
AcDbLine
 10
-272.5045970674
 20
96.998095489
 30
0.0
 11
-192.5045988555
 21
96.998095489
 31
0.0
  0
LINE
  5
9C
330
1F
100
AcDbEntity
  8
0
  6
Continuous
 62
     7
370
    25
100
AcDbLine
 10
225.5894788023
 20
536.246431355
 30
0.0
 11
135.0209363218
 21
536.246431355
 31
0.0
  0
LINE
  5
9D
330
1F
100
AcDbEntity
  8
0
  6
Continuous
 62
     7
370
    25
100
AcDbLine
 10
135.0209363218
 20
376.2464349313
 30
0.0
 11
225.5894788023
 21
376.2464349313
 31
0.0
  0
LINE
  5
9E
330
1F
100
AcDbEntity
  8
0
  6
Continuous
 62
     7
370
    25
100
AcDbLine
 10
135.0209363218
 20
536.246431355
 30
0.0
 11
111.5894787427
 21
536.246431355
 31
0.0
  0
LINE
  5
9F
330
1F
100
AcDbEntity
  8
0
  6
Continuous
 62
     7
370
    25
100
AcDbLine
 10
111.5894787427
 20
376.2464349313
 30
0.0
 11
135.0209363218
 21
376.2464349313
 31
0.0
  0
CIRCLE
  5
A0
330
1F
100
AcDbEntity
  8
0
  6
Continuous
 62
     7
370
    25
100
AcDbCircle
 10
111.5894787427
 20
456.2464331431
 30
0.0
 40
70.50000000000011
  0
CIRCLE
  5
A1
330
1F
100
AcDbEntity
  8
0
  6
Continuous
 62
     7
370
    25
100
AcDbCircle
 10
111.5894787427
 20
456.2464331431
 30
0.0
 40
80.0
  0
LWPOLYLINE
  5
A2
330
1F
100
AcDbEntity
  8
0
  6
Continuous
 62
     7
370
    25
100
AcDbPolyline
 90
       53
 70
   128
 43
0.0
 10
225.5894788023
 20
536.246431355
 10
229.0718876239
 20
536.0947002811
 10
232.5410865661
 20
535.6400733037
 10
235.9839179035
 20
534.8842789574
 10
239.3873207685
 20
533.8301857157
 10
242.7383833047
 20
532.4817945404
 10
246.0243873712
 20
530.8442090793
 10
249.2328904983
 20
528.9236580176
 10
252.351688635
 20
526.7274056716
 10
255.3689800616
 20
524.263804142
 10
258.2733057853
 20
521.5421890063
 10
261.0536389466
 20
518.5728793187
 10
263.6994593259
 20
515.3671478076
 10
266.2007086393
 20
511.9371500952
 10
268.5479097482
 20
508.2958986206
 10
270.7321517583
 20
504.4572030349
 10
272.745149624
 20
500.4356292231
 10
274.5792739507
 20
496.2464322491
 10
276.2275658961
 20
491.9055004759
 10
277.6837669726
 20
487.429303412
 10
278.9423488494
 20
482.8348172052
 10
279.998558056
 20
478.1394724889
 10
280.8483712789
 20
473.3610798759
 10
281.4885549661
 20
468.5177656977
 10
281.9167100307
 20
463.6279016888
 10
282.1311973449
 20
458.7100379324
 10
282.1311973449
 20
453.7828283539
 10
281.9167100307
 20
448.8649645975
 10
281.4885549661
 20
443.9751005886
 10
280.8483712789
 20
439.1317864103
 10
279.998558056
 20
434.3533937974
 10
278.9423488494
 20
429.6580490811
 10
277.6837669726
 20
425.0635628743
 10
276.2275658961
 20
420.5873658104
 10
274.5792739507
 20
416.2464340372
 10
272.745149624
 20
412.0572370632
 10
270.7321517583
 20
408.0356632514
 10
268.5479097482
 20
404.1969676657
 10
266.2007086393
 20
400.5557161911
 10
263.6994593259
 20
397.1257184787
 10
261.0536389466
 20
393.9199869676
 10
258.2733057853
 20
390.95067728
 10
255.3689800616
 20
388.2290621443
 10
252.351688635
 20
385.7654606147
 10
249.2328904983
 20
383.5692082686
 10
246.0243873712
 20
381.648657207
 10
242.7383833047
 20
380.0110717459
 10
239.3873207685
 20
378.6626805706
 10
235.9839179035
 20
377.6085873289
 10
232.5410865661
 20
376.8527929826
 10
229.0718876239
 20
376.3981660051
 10
225.5894788023
 20
376.2464349313
 10
225.5894788023
 20
376.2464349313
  0
ARC
  5
A3
330
1F
100
AcDbEntity
  8
0
  6
Continuous
 62
     7
370
    25
100
AcDbCircle
 10
273.7959531216
 20
456.2464331431
 30
0.0
 40
98.06633701831439
100
AcDbArc
 50
166.6764934951
 51
193.3235065049
  0
LWPOLYLINE
  5
A4
330
1F
100
AcDbEntity
  8
0
  6
Continuous
 62
     1
370
    25
100
AcDbPolyline
 90
       27
 70
   128
 43
0.0
 10
191.5894769546
 20
456.2464331431
 10
191.482188594
 20
451.3215607187
 10
191.160718393
 20
446.4153696938
 10
190.6262882467
 20
441.5464720843
 10
189.8809321638
 20
436.7333346201
 10
188.9274739143
 20
431.9942196054
 10
187.7695344802
 20
427.3471006347
 10
186.4114948031
 20
422.8096057816
 10
184.8585106846
 20
418.3989477499
 10
183.1164829846
 20
414.131858681
 10
181.192005467
 20
410.0245249612
 10
179.0923871513
 20
406.09252948
 10
176.8255927082
 20
402.350780849
 10
174.4002201077
 20
398.8134798749
 10
171.8254633661
 20
395.494041328
 10
169.1110976454
 20
392.4050529642
 10
166.2674159225
 20
389.5582457228
 10
163.3052066382
 20
386.9644005938
 10
160.235705268
 20
384.6333672447
 10
157.0705533441
 20
382.5739895148
 10
153.8217612024
 20
380.7940756125
 10
150.5016521033
 20
379.3003832145
 10
147.1228175279
 20
378.0985673113
 10
143.6980799254
 20
377.1931951089
 10
140.2404219326
 20
376.5877013249
 10
136.7629677471
 20
376.2843732877
 10
135.0209363218
 20
376.2464349313
  0
LWPOLYLINE
  5
A5
330
1F
100
AcDbEntity
  8
0
  6
Continuous
 62
     1
370
    25
100
AcDbPolyline
 90
       27
 70
   128
 43
0.0
 10
135.0209363218
 20
536.246431355
 10
136.7629677471
 20
536.2084929986
 10
140.2404219326
 20
535.9051649613
 10
143.6980799254
 20
535.2996711774
 10
147.1228175279
 20
534.394298975
 10
150.5016521033
 20
533.1924830718
 10
153.8217612024
 20
531.6987906737
 10
157.0705533441
 20
529.9188767715
 10
160.235705268
 20
527.8594990416
 10
163.3052066382
 20
525.5284656925
 10
166.2674159225
 20
522.9346205635
 10
169.1110976454
 20
520.0878133221
 10
171.8254633661
 20
516.9988249583
 10
174.4002201077
 20
513.6793864114
 10
176.8255927082
 20
510.1420854373
 10
179.0923871513
 20
506.4003368063
 10
181.192005467
 20
502.468341325
 10
183.1164829846
 20
498.3610076053
 10
184.8585106846
 20
494.0939185364
 10
186.4114948031
 20
489.6832605047
 10
187.7695344802
 20
485.1457656516
 10
188.9274739143
 20
480.4986466808
 10
189.8809321638
 20
475.7595316662
 10
190.6262882467
 20
470.9463942019
 10
191.160718393
 20
466.0774965925
 10
191.482188594
 20
461.1713055676
 10
191.5894769546
 20
456.2464331431
  0
LWPOLYLINE
  5
A6
330
1F
100
AcDbEntity
  8
0
  6
Continuous
 62
     1
370
    25
100
AcDbPolyline
 90
       44
 70
   128
 43
0.0
 10
125.3153089847
 20
525.3973652763
 10
125.1944493916
 20
525.3632192655
 10
121.9858922478
 20
524.2936586185
 10
118.8343339082
 20
522.9265515847
 10
115.7535551529
 20
521.2678586288
 10
112.7570280287
 20
519.3248515172
 10
109.8578553129
 20
517.1060164614
 10
107.0687141683
 20
514.6210541172
 10
104.4018011954
 20
511.8808386071
 10
101.8687779497
 20
508.8973467393
 10
99.4807197195
 20
505.6836282058
 10
97.2480712872
 20
502.2537310762
 10
95.1805938449
 20
498.6226533694
 10
93.2873268094
 20
494.8062797232
 10
91.5765505698
 20
490.8212919874
 10
90.0557455089
 20
486.6851152076
 10
88.7315631326
 20
482.4158393933
 10
87.6097906794
 20
478.0321319742
 10
86.6953362193
 20
473.553159569
 10
85.9921969887
 20
468.9985106854
 10
85.5034482148
 20
464.3880997939
 10
85.2312263515
 20
459.7420879329
 10
85.1767234918
 20
455.0807900416
 10
85.3401743289
 20
450.4245895116
 10
85.7208673324
 20
445.7938459857
 10
86.3171391603
 20
441.2088089777
 10
87.1263783839
 20
436.6895289315
 10
88.1450478401
 20
432.2557647867
 10
89.3686939444
 20
427.9269048167
 10
90.79196718
 20
423.7218809469
 10
92.4086407241
 20
419.6590793474
 10
94.2116477009
 20
415.756264065
 10
96.1931035336
 20
412.0305006547
 10
98.344343197
 20
408.4980835362
 10
100.655960333
 20
405.174457763
 10
103.1178463664
 20
402.0741556926
 10
105.7192370709
 20
399.2107336564
 10
108.4487565741
 20
396.5967160804
 10
111.2944693951
 20
394.2435321553
 10
114.2439320166
 20
392.1614711328
 10
117.2842471343
 20
390.3596376224
 10
120.4021204677
 20
388.8459106131
 10
123.5839179199
 20
387.6269062204
 10
125.3153089847
 20
387.0955010099
  0
INSERT
  5
B2
330
1F
100
AcDbEntity
  8
FORMAT
 62
     7
100
AcDbBlockReference
  2
SW_CENTERMARKSYMBOL_0
 10
111.5894787427
 20
456.2464331431
 30
0.0
  0
LINE
  5
B3
330
1F
100
AcDbEntity
  8
0
  6
Continuous
 62
     7
370
    25
100
AcDbLine
 10
381.6462107612
 20
96.998095489
 30
0.0
 11
381.6462107612
 21
-28.8648158546
 31
0.0
  0
LINE
  5
B4
330
1F
100
AcDbEntity
  8
0
  6
Continuous
 62
     7
370
    25
100
AcDbLine
 10
541.6462071849
 20
-28.8648158546
 30
0.0
 11
541.6462071849
 21
96.998095489
 31
0.0
  0
LINE
  5
B5
330
1F
100
AcDbEntity
  8
0
  6
Continuous
 62
     7
370
    25
100
AcDbLine
 10
541.6462071849
 20
96.998095489
 30
0.0
 11
541.6462071849
 21
153.5666435723
 31
0.0
  0
LINE
  5
B6
330
1F
100
AcDbEntity
  8
0
  6
Continuous
 62
     7
370
    25
100
AcDbLine
 10
381.6462107612
 20
153.5666435723
 30
0.0
 11
381.6462107612
 21
96.998095489
 31
0.0
  0
LINE
  5
B7
330
1F
100
AcDbEntity
  8
0
  6
Continuous
 62
     7
370
    25
100
AcDbLine
 10
381.6462107612
 20
244.1351860527
 30
0.0
 11
381.6462107612
 21
153.5666435723
 31
0.0
  0
LINE
  5
B8
330
1F
100
AcDbEntity
  8
0
  6
Continuous
 62
     7
370
    25
100
AcDbLine
 10
541.6462071849
 20
153.5666435723
 30
0.0
 11
541.6462071849
 21
244.1351860527
 31
0.0
  0
LINE
  5
B9
330
1F
100
AcDbEntity
  8
0
  6
Continuous
 62
     7
370
    25
100
AcDbLine
 10
381.6462107612
 20
-28.8648158546
 30
0.0
 11
541.6462071849
 21
-28.8648158546
 31
0.0
  0
LWPOLYLINE
  5
BA
330
1F
100
AcDbEntity
  8
0
  6
Continuous
 62
     7
370
    25
100
AcDbPolyline
 90
       52
 70
   128
 43
0.0
 10
381.6462107612
 20
244.1351860527
 10
381.797941835
 20
247.6175874237
 10
382.2525688125
 20
251.0867863659
 10
383.0083631588
 20
254.5296400551
 10
384.0624564005
 20
257.9330354695
 10
385.4108475758
 20
261.2840980057
 10
387.0484330369
 20
264.5701020722
 10
388.9689840985
 20
267.7785902981
 10
391.1652364446
 20
270.897403336
 10
393.6288379742
 20
273.9146798615
 10
396.3504531098
 20
276.8190055851
 10
399.3197627974
 20
279.5993536476
 10
402.5254943086
 20
282.2451740269
 10
405.9554920209
 20
284.7464233403
 10
409.5967434956
 20
287.0936244492
 10
413.4354390813
 20
289.2778664593
 10
417.4570128931
 20
291.290864325
 10
421.6462098671
 20
293.1249886517
 10
425.9871416403
 20
294.773265696
 10
430.4633387042
 20
296.2294667725
 10
435.057824911
 20
297.4880486492
 10
439.7531696273
 20
298.544272757
 10
444.5315622402
 20
299.3940561775
 10
449.3748764185
 20
300.0342696671
 10
454.2647404274
 20
300.4624098305
 10
459.1826041838
 20
300.6768971447
 10
464.1098137623
 20
300.6768971447
 10
469.0276775187
 20
300.4624098305
 10
473.9175415275
 20
300.0342696671
 10
478.7608557058
 20
299.3940561775
 10
483.5392483188
 20
298.544272757
 10
488.2345930351
 20
297.4880486492
 10
492.8290792418
 20
296.2294667725
 10
497.3052763058
 20
294.773265696
 10
501.646208079
 20
293.1249886517
 10
505.835405053
 20
291.290864325
 10
509.8569788648
 20
289.2778664593
 10
513.6956744505
 20
287.0936244492
 10
517.3369259251
 20
284.7464233403
 10
520.7669236375
 20
282.2451740269
 10
523.9726551486
 20
279.5993536476
 10
526.9419648362
 20
276.8190055851
 10
529.6635799719
 20
273.9146798615
 10
532.1271815015
 20
270.897403336
 10
534.3234338475
 20
267.7785902981
 10
536.2439849092
 20
264.5701020722
 10
537.8815703703
 20
261.2840980057
 10
539.2299615456
 20
257.9330354695
 10
540.2840547873
 20
254.5296400551
 10
541.0398491336
 20
251.0867863659
 10
541.494476111
 20
247.6175874237
 10
541.6462071849
 20
244.1351860527
  0
LINE
  5
BB
330
1F
100
AcDbEntity
  8
0
  6
Continuous
 62
     1
370
    25
100
AcDbLine
 10
381.6462107612
 20
96.998095489
 30
0.0
 11
541.6462071849
 21
96.998095489
 31
0.0
  0
LWPOLYLINE
  5
BC
330
1F
100
AcDbEntity
  8
0
  6
Continuous
 62
     1
370
    25
100
AcDbPolyline
 90
       53
 70
   128
 43
0.0
 10
381.6462107612
 20
153.5666435723
 10
381.6841491176
 20
155.3086787228
 10
381.9874771548
 20
158.7861329083
 10
382.5929709388
 20
162.2437834505
 10
383.4983431412
 20
165.6685173277
 10
384.7001590444
 20
169.0473556284
 10
386.1938514424
 20
172.3674684529
 10
387.9737653447
 20
175.6162643198
 10
390.0331430746
 20
178.7814050679
 10
392.3641764236
 20
181.8509101633
 10
394.9580215527
 20
184.8131268982
 10
397.8048287941
 20
187.6568048958
 10
400.8938171578
 20
190.3711706166
 10
404.2132557047
 20
192.9459273581
 10
407.7505566789
 20
195.3712999586
 10
411.4923053099
 20
197.6380944018
 10
415.4243007911
 20
199.7377127175
 10
419.5316345108
 20
201.6621827845
 10
423.7987235797
 20
203.404217935
 10
428.2093816114
 20
204.9572020535
 10
432.7468764646
 20
206.31523428
 10
437.3939954353
 20
207.4731886153
 10
442.13311045
 20
208.4266394142
 10
446.9462479142
 20
209.1719954972
 10
451.8151455236
 20
209.7064256434
 10
456.7213365486
 20
210.0278883938
 10
461.646208973
 20
210.1351767544
 10
466.5710813975
 20
210.0278883938
 10
471.4772724224
 20
209.7064256434
 10
476.3461700318
 20
209.1719954972
 10
481.159307496
 20
208.4266394142
 10
485.8984225107
 20
207.4731886153
 10
490.5455414815
 20
206.31523428
 10
495.0830363346
 20
204.9572020535
 10
499.4936943663
 20
203.404217935
 10
503.7607834352
 20
201.6621827845
 10
507.8681171549
 20
199.7377127175
 10
511.8001126362
 20
197.6380944018
 10
515.5418612672
 20
195.3712999586
 10
519.0791622413
 20
192.9459273581
 10
522.3986007882
 20
190.3711706166
 10
525.487589152
 20
187.6568048958
 10
528.3343963934
 20
184.8131268982
 10
530.9282415224
 20
181.8509101633
 10
533.2592748714
 20
178.7814050679
 10
535.3186526013
 20
175.6162643198
 10
537.0985665036
 20
172.3674684529
 10
538.5922589017
 20
169.0473556284
 10
539.7940748049
 20
165.6685173277
 10
540.6994470073
 20
162.2437834505
 10
541.3049407912
 20
158.7861329083
 10
541.6082688285
 20
155.3086787228
 10
541.6462071849
 20
153.5666435723
  0
LINE
  5
BD
330
1F
100
AcDbEntity
  8
0
  6
Continuous
 62
     7
370
    25
100
AcDbLine
 10
225.5894788023
 20
-140.1652329568
 30
0.0
 11
135.0209363218
 21
-140.1652329568
 31
0.0
  0
LINE
  5
BE
330
1F
100
AcDbEntity
  8
0
  6
Continuous
 62
     7
370
    25
100
AcDbLine
 10
135.0209363218
 20
-300.1652293805
 30
0.0
 11
225.5894788023
 21
-300.1652293805
 31
0.0
  0
LINE
  5
BF
330
1F
100
AcDbEntity
  8
0
  6
Continuous
 62
     7
370
    25
100
AcDbLine
 10
111.5894787427
 20
-300.1652293805
 30
0.0
 11
135.0209363218
 21
-300.1652293805
 31
0.0
  0
LINE
  5
C0
330
1F
100
AcDbEntity
  8
0
  6
Continuous
 62
     7
370
    25
100
AcDbLine
 10
135.0209363218
 20
-140.1652329568
 30
0.0
 11
111.5894787427
 21
-140.1652329568
 31
0.0
  0
LWPOLYLINE
  5
C1
330
1F
100
AcDbEntity
  8
0
  6
Continuous
 62
     7
370
    25
100
AcDbPolyline
 90
      103
 70
   128
 43
0.0
 10
225.5894788023
 20
-300.1652293805
 10
229.0718876239
 20
-300.0134983067
 10
232.5410865661
 20
-299.5588713292
 10
235.9839179035
 20
-298.8030769829
 10
239.3873207685
 20
-297.7489837412
 10
242.7383833047
 20
-296.4005925659
 10
246.0243873712
 20
-294.7630071048
 10
249.2328904983
 20
-292.8424560431
 10
252.351688635
 20
-290.6462036971
 10
255.3689800616
 20
-288.1826021675
 10
258.2733057853
 20
-285.4609870318
 10
261.0536389466
 20
-282.4916773442
 10
263.6994593259
 20
-279.2859458331
 10
266.2007086393
 20
-275.8559481207
 10
268.5479097482
 20
-272.2146966461
 10
270.7321517583
 20
-268.3760010604
 10
272.745149624
 20
-264.3544272486
 10
274.5792739507
 20
-260.1652302746
 10
276.2275658961
 20
-255.8242985014
 10
277.6837669726
 20
-251.3481014375
 10
278.9423488494
 20
-246.7536152307
 10
279.998558056
 20
-242.0582705144
 10
280.8483712789
 20
-237.2798779015
 10
281.4885549661
 20
-232.4365637232
 10
281.9167100307
 20
-227.5466997143
 10
282.1311973449
 20
-222.6288359579
 10
282.1311973449
 20
-217.7016263794
 10
281.9167100307
 20
-212.783762623
 10
281.4885549661
 20
-207.8938986141
 10
280.8483712789
 20
-203.0505844358
 10
279.998558056
 20
-198.2721918229
 10
278.9423488494
 20
-193.5768471066
 10
277.6837669726
 20
-188.9823608998
 10
276.2275658961
 20
-184.5061638359
 10
274.5792739507
 20
-180.1652320627
 10
272.745149624
 20
-175.9760350887
 10
270.7321517583
 20
-171.9544612769
 10
268.5479097482
 20
-168.1157656912
 10
266.2007086393
 20
-164.4745142166
 10
263.6994593259
 20
-161.0445165042
 10
261.0536389466
 20
-157.8387849931
 10
258.2733057853
 20
-154.8694753055
 10
255.3689800616
 20
-152.1478601698
 10
252.351688635
 20
-149.6842586402
 10
249.2328904983
 20
-147.4880062942
 10
246.0243873712
 20
-145.5674552325
 10
242.7383833047
 20
-143.9298697714
 10
239.3873207685
 20
-142.5814785961
 10
235.9839179035
 20
-141.5273853544
 10
232.5410865661
 20
-140.7715910081
 10
229.0718876239
 20
-140.3169640306
 10
225.5894788023
 20
-140.1652329568
 10
222.1070699807
 20
-140.3169640306
 10
218.637863588
 20
-140.7715910081
 10
215.1950397011
 20
-141.5273853544
 10
211.7916368362
 20
-142.5814785961
 10
208.4405742999
 20
-143.9298697714
 10
205.1545627829
 20
-145.5674552325
 10
201.9460745569
 20
-147.4880062942
 10
198.8272689696
 20
-149.6842586402
 10
195.809977543
 20
-152.1478601698
 10
192.9056518193
 20
-154.8694753055
 10
190.1253112074
 20
-157.8387849931
 10
187.4794982787
 20
-161.0445165042
 10
184.9782489654
 20
-164.4745142166
 10
182.6310478564
 20
-168.1157656912
 10
180.4468058463
 20
-171.9544612769
 10
178.4338079806
 20
-175.9760350887
 10
176.5996836539
 20
-180.1652320627
 10
174.9513991591
 20
-184.5061638359
 10
173.4951943573
 20
-188.9823608998
 10
172.2366087552
 20
-193.5768471066
 10
171.1804032739
 20
-198.2721918229
 10
170.3305937763
 20
-203.0505844358
 10
169.6903989133
 20
-207.8938986141
 10
169.262247574
 20
-212.783762623
 10
169.047763985
 20
-217.7016263794
 10
169.047763985
 20
-222.6288359579
 10
169.262247574
 20
-227.5466997143
 10
169.6903989133
 20
-232.4365637232
 10
170.3305937763
 20
-237.2798779015
 10
171.1804032739
 20
-242.0582705144
 10
172.2366087552
 20
-246.7536152307
 10
173.4951943573
 20
-251.3481014375
 10
174.9513991591
 20
-255.8242985014
 10
176.5996836539
 20
-260.1652302746
 10
178.4338079806
 20
-264.3544272486
 10
180.4468058463
 20
-268.3760010604
 10
182.6310478564
 20
-272.2146966461
 10
184.9782489654
 20
-275.8559481207
 10
187.4794982787
 20
-279.2859458331
 10
190.1253112074
 20
-282.4916773442
 10
192.9056518193
 20
-285.4609870318
 10
195.809977543
 20
-288.1826021675
 10
198.8272689696
 20
-290.6462036971
 10
201.9460745569
 20
-292.8424560431
 10
205.1545627829
 20
-294.7630071048
 10
208.4405742999
 20
-296.4005925659
 10
211.7916368362
 20
-297.7489837412
 10
215.1950397011
 20
-298.8030769829
 10
218.637863588
 20
-299.5588713292
 10
222.1070699807
 20
-300.0134983067
 10
225.5894788023
 20
-300.1652293805
  0
LWPOLYLINE
  5
C2
330
1F
100
AcDbEntity
  8
0
  6
Continuous
 62
     7
370
    25
100
AcDbPolyline
 90
       96
 70
   128
 43
0.0
 10
225.5894788023
 20
-290.66523248
 10
222.2947948094
 20
-290.5110948686
 10
219.0145202395
 20
-290.0493451361
 10
215.7629900094
 20
-289.282017291
 10
212.5544347283
 20
-288.212456644
 10
209.4028763887
 20
-286.8453496102
 10
206.3220985647
 20
-285.1866566543
 10
203.3255719062
 20
-283.2436495427
 10
200.4263945337
 20
-281.0248144869
 10
197.6372547861
 20
-278.5398521427
 10
194.9703418132
 20
-275.7996366326
 10
192.4373232242
 20
-272.8161447648
 10
190.0492631312
 20
-269.6024262313
 10
187.816614699
 20
-266.1725291018
 10
185.749138188
 20
-262.5414513949
 10
183.8558711525
 20
-258.7250777487
 10
182.1450911876
 20
-254.7400900129
 10
180.6242861267
 20
-250.6039132331
 10
179.3001018878
 20
-246.3346374188
 10
178.1783350226
 20
-241.9509299997
 10
177.2638805624
 20
-237.4719575945
 10
176.5607394692
 20
-232.9173087109
 10
176.0719888326
 20
-228.3068978194
 10
175.7997669693
 20
-223.6608859584
 10
175.7452659722
 20
-218.9995880671
 10
175.9087168094
 20
-214.3433875371
 10
176.2894116756
 20
-209.7126440112
 10
176.8856816407
 20
-205.1276070032
 10
177.6949190017
 20
-200.608326957
 10
178.7135921832
 20
-196.1745628122
 10
179.9372382876
 20
-191.8457028423
 10
181.3605077978
 20
-187.6406789724
 10
182.9771869298
 20
-183.5778773729
 10
184.7801901814
 20
-179.6750620905
 10
186.7616422888
 20
-175.9492986802
 10
188.9128856774
 20
-172.4168815617
 10
191.2245028134
 20
-169.0932557885
 10
193.6863907095
 20
-165.9929537181
 10
196.2877832767
 20
-163.1295316819
 10
199.0172960278
 20
-160.5155141059
 10
201.8630154844
 20
-158.1623301808
 10
204.8124768253
 20
-156.0802691583
 10
207.852790546
 20
-154.2784356479
 10
210.9706648108
 20
-152.7647086386
 10
214.1524576064
 20
-151.545704246
 10
217.3842661496
 20
-150.6267570857
 10
220.651956689
 20
-150.0118830208
 10
223.9412390109
 20
-149.7037791614
 10
227.2377185937
 20
-149.7037791614
 10
230.5270009156
 20
-150.0118830208
 10
233.794691455
 20
-150.6267570857
 10
237.0264999982
 20
-151.545704246
 10
240.2083002444
 20
-152.7647086386
 10
243.3261745092
 20
-154.2784356479
 10
246.3664882299
 20
-156.0802691583
 10
249.3159495708
 20
-158.1623301808
 10
252.1616541263
 20
-160.5155141059
 10
254.891174328
 20
-163.1295316819
 10
257.4925743457
 20
-165.9929537181
 10
259.9544547912
 20
-169.0932557885
 10
262.2660719272
 20
-172.4168815617
 10
264.4173078652
 20
-175.9492986802
 10
266.3987599727
 20
-179.6750620905
 10
268.2017706748
 20
-183.5778773729
 10
269.8184423562
 20
-187.6406789724
 10
271.2417267676
 20
-191.8457028423
 10
272.4653654214
 20
-196.1745628122
 10
273.4840386029
 20
-200.608326957
 10
274.2932759639
 20
-205.1276070032
 10
274.8895459291
 20
-209.7126440112
 10
275.2702407952
 20
-214.3433875371
 10
275.4336916324
 20
-218.9995880671
 10
275.3791831847
 20
-223.6608859584
 10
275.106968772
 20
-228.3068978194
 10
274.6182106849
 20
-232.9173087109
 10
273.9150844928
 20
-237.4719575945
 10
273.0006300326
 20
-241.9509299997
 10
271.8788557168
 20
-246.3346374188
 10
270.5546640273
 20
-250.6039132331
 10
269.033866417
 20
-254.7400900129
 10
267.3230939027
 20
-258.7250777487
 10
265.4298268672
 20
-262.5414513949
 10
263.3623503562
 20
-266.1725291018
 10
261.1296944734
 20
-269.6024262313
 10
258.7416343804
 20
-272.8161447648
 10
256.2086157914
 20
-275.7996366326
 10
253.5416953679
 20
-278.5398521427
 10
250.7525556203
 20
-281.0248144869
 10
247.8533856984
 20
-283.2436495427
 10
244.8568664905
 20
-285.1866566543
 10
241.776081216
 20
-286.8453496102
 10
238.6245154258
 20
-288.212456644
 10
235.4159675952
 20
-289.282017291
 10
232.1644373652
 20
-290.0493451361
 10
228.8841627952
 20
-290.5110948686
 10
225.5894788023
 20
-290.66523248
  0
ARC
  5
C3
330
1F
100
AcDbEntity
  8
0
  6
Continuous
 62
     7
370
    25
100
AcDbCircle
 10
111.5894787427
 20
-220.1652311687
 30
0.0
 40
80.0
100
AcDbArc
 50
90.0
 51
270.0
  0
ARC
  5
C4
330
1F
100
AcDbEntity
  8
0
  6
Continuous
 62
     7
370
    25
100
AcDbCircle
 10
111.5894787427
 20
-220.1652311687
 30
0.0
 40
70.50000000000003
100
AcDbArc
 50
341.3033698912
 51
18.6966301088
  0
LWPOLYLINE
  5
C5
330
1F
100
AcDbEntity
  8
0
  6
Continuous
 62
     1
370
    25
100
AcDbPolyline
 90
       53
 70
   128
 43
0.0
 10
135.0209363218
 20
-140.1652329568
 10
133.2789048966
 20
-140.2031713132
 10
129.8014488485
 20
-140.5064993505
 10
126.3437936496
 20
-141.1119931344
 10
122.9190532532
 20
-142.0173653368
 10
119.5402196091
 20
-143.21918124
 10
116.2201095786
 20
-144.7128736381
 10
112.9713175533
 20
-146.4927875403
 10
109.8061671428
 20
-148.5521652702
 10
106.7366650742
 20
-150.8831986193
 10
103.7744548585
 20
-153.4770437483
 10
100.9307731356
 20
-156.3238509897
 10
98.2164074149
 20
-159.4128393535
 10
95.6416543987
 20
-162.7322779004
 10
93.2162780728
 20
-166.2695788745
 10
90.9494836297
 20
-170.0113275055
 10
88.8498671766
 20
-173.9433229867
 10
86.9253915217
 20
-178.0506567065
 10
85.1833600964
 20
-182.3177457754
 10
83.6303797033
 20
-186.7284038071
 10
82.2723418888
 20
-191.2658986602
 10
81.1143968668
 20
-195.913017631
 10
80.1609367546
 20
-200.6521326456
 10
79.4155806717
 20
-205.4652701099
 10
78.8811542507
 20
-210.3341677193
 10
78.5596840497
 20
-215.2403587442
 10
78.4523919638
 20
-220.1652311687
 10
78.5596840497
 20
-225.0901035931
 10
78.8811542507
 20
-229.996294618
 10
79.4155806717
 20
-234.8651922274
 10
80.1609367546
 20
-239.6783296917
 10
81.1143968668
 20
-244.4174447063
 10
82.2723418888
 20
-249.0645636771
 10
83.6303797033
 20
-253.6020585302
 10
85.1833600964
 20
-258.0127165619
 10
86.9253915217
 20
-262.2798056308
 10
88.8498671766
 20
-266.3871393506
 10
90.9494836297
 20
-270.3191348318
 10
93.2162780728
 20
-274.0608834628
 10
95.6416543987
 20
-277.5981844369
 10
98.2164074149
 20
-280.9176229838
 10
100.9307731356
 20
-284.0066113476
 10
103.7744548585
 20
-286.853418589
 10
106.7366650742
 20
-289.447263718
 10
109.8061671428
 20
-291.7782970671
 10
112.9713175533
 20
-293.837674797
 10
116.2201095786
 20
-295.6175886992
 10
119.5402196091
 20
-297.1112810973
 10
122.9190532532
 20
-298.3130970005
 10
126.3437936496
 20
-299.2184692029
 10
129.8014488485
 20
-299.8239629869
 10
133.2789048966
 20
-300.1272910241
 10
135.0209363218
 20
-300.1652293805
  0
ARC
  5
C6
330
1F
100
AcDbEntity
  8
0
  6
Continuous
 62
     1
370
    25
100
AcDbCircle
 10
88.0347267505
 20
-220.1652311687
 30
0.0
 40
96.8646540147969
100
AcDbArc
 50
342.2829963194
 51
17.7170036806
  0
INSERT
  5
D2
330
1F
100
AcDbEntity
  8
FORMAT
 62
     7
100
AcDbBlockReference
  2
SW_CENTERMARKSYMBOL_1
 10
111.5894787427
 20
-220.1652311687
 30
0.0
  0
LINE
  5
D3
330
1F
100
AcDbEntity
  8
0
  6
Continuous
 62
     7
370
    25
100
AcDbLine
 10
353.3973683069
 20
-264.5300217606
 30
0.0
 11
353.3973683069
 21
-367.3022255754
 31
0.0
  0
LINE
  5
D4
330
1F
100
AcDbEntity
  8
0
  6
Continuous
 62
     7
370
    25
100
AcDbLine
 10
513.3973630398
 20
-367.3022255754
 30
0.0
 11
513.3973630398
 21
-264.5300217606
 31
0.0
  0
LINE
  5
D5
330
1F
100
AcDbEntity
  8
0
  6
Continuous
 62
     7
370
    25
100
AcDbLine
 10
444.7255060541
 20
-57.8513317861
 30
0.0
 11
380.6838748454
 21
-168.7746775857
 31
0.0
  0
LINE
  5
D6
330
1F
100
AcDbEntity
  8
0
  6
Continuous
 62
     7
370
    25
100
AcDbLine
 10
519.2479409374
 20
-248.774677918
 30
0.0
 11
583.2895767558
 21
-137.8513172899
 31
0.0
  0
SPLINE
  5
D7
330
1F
100
AcDbEntity
  8
0
  6
Continuous
 62
     7
370
    25
100
AcDbSpline
210
0.0
220
0.0
230
1.0
 70
     8
 71
     3
 72
    23
 73
    19
 74
     0
 42
0.000000001
 43
0.00000001
 40
0.0
 40
0.0
 40
0.0
 40
0.0
 40
0.0376857464855449
 40
0.1024897954736876
 40
0.1673777609776415
 40
0.232392567496262
 40
0.2975796950517079
 40
0.3629814485187874
 40
0.4286354099011977
 40
0.4945711170084255
 40
0.5608080070408745
 40
0.6273509411082755
 40
0.6941869496389126
 40
0.7612808471902083
 40
0.8285721927819932
 40
0.8959573071709614
 40
0.9632972754969991
 40
1.0
 40
1.0
 40
1.0
 40
1.0
 10
380.683874845393
 20
-168.7746775857037
 30
0.0
 10
380.0430226972186
 20
-169.8984434653653
 30
0.0
 10
378.3001673282674
 20
-172.9546263967822
 30
0.0
 10
375.6001593195488
 20
-178.0255613040173
 30
0.0
 10
372.6355625029732
 20
-184.005547639005
 30
0.0
 10
369.8594165014264
 20
-190.0761143721427
 30
0.0
 10
367.273344314731
 20
-196.2303418651275
 30
0.0
 10
364.8835167180013
 20
-202.46381224119
 30
0.0
 10
362.6957151815178
 20
-208.7712348567259
 30
0.0
 10
360.7166743928818
 20
-215.1470125574599
 30
0.0
 10
358.9537974531287
 20
-221.5847139562626
 30
0.0
 10
357.4151874637509
 20
-228.0767673807183
 30
0.0
 10
356.1093791476706
 20
-234.6140410982475
 30
0.0
 10
355.0457198208307
 20
-241.1853963813496
 30
0.0
 10
354.2319983035508
 20
-247.7770243228617
 30
0.0
 10
353.6817096567895
 20
-254.3711417796628
 30
0.0
 10
353.42901583525
 20
-259.9573857753453
 30
0.0
 10
353.4056211547465
 20
-263.3375978650571
 30
0.0
 10
353.3973683069011
 20
-264.5300217606427
 30
0.0
  0
SPLINE
  5
D8
330
1F
100
AcDbEntity
  8
0
  6
Continuous
 62
     7
370
    25
100
AcDbSpline
210
0.0
220
0.0
230
1.0
 70
     8
 71
     3
 72
    19
 73
    15
 74
     0
 42
0.000000001
 43
0.00000001
 40
0.0
 40
0.0
 40
0.0
 40
0.0
 40
0.0884463494808244
 40
0.1745144839042124
 40
0.2589547441895101
 40
0.3424266703206647
 40
0.4254847343571359
 40
0.508569373578154
 40
0.5919811612507782
 40
0.6758662693883651
 40
0.7603529414541156
 40
0.8454667466341089
 40
0.9311478150217832
 40
1.0
 40
1.0
 40
1.0
 40
1.0
 10
513.4045411749438
 20
-264.4795749392017
 30
0.0
 10
513.4138368619488
 20
-264.3716277609475
 30
0.0
 10
513.4321782862103
 20
-264.1586359731289
 30
0.0
 10
513.517119654013
 20
-263.528080014731
 30
0.0
 10
513.6657952094165
 20
-262.6903893980047
 30
0.0
 10
513.8953194982216
 20
-261.6392542603863
 30
0.0
 10
514.2173554742574
 20
-260.3977185565232
 30
0.0
 10
514.6418612591907
 20
-258.9842435497922
 30
0.0
 10
515.1753672120132
 20
-257.4224903789465
 30
0.0
 10
515.8212783747396
 20
-255.7388579578906
 30
0.0
 10
516.5782801663273
 20
-253.9620728177203
 30
0.0
 10
517.4444865509622
 20
-252.1244980877018
 30
0.0
 10
518.3370319168387
 20
-250.3797199818928
 30
0.0
 10
518.9714014276786
 20
-249.2706993783711
 30
0.0
 10
519.2540443278541
 20
-248.7765760096128
 30
0.0
  0
LWPOLYLINE
  5
D9
330
1F
100
AcDbEntity
  8
0
  6
Continuous
 62
     7
370
    25
100
AcDbPolyline
 90
      103
 70
   128
 43
0.0
 10
376.8288244428
 20
-334.6459018324
 10
380.4185252019
 20
-332.6974861737
 10
384.2091959641
 20
-330.8803396744
 10
388.1864537881
 20
-329.20135424
 10
392.335212407
 20
-327.666897142
 10
396.6397293144
 20
-326.2827899183
 10
401.083686436
 20
-325.0542861333
 10
405.6502144955
 20
-323.9860390635
 10
410.3220056263
 20
-323.0821096812
 10
415.0813225906
 20
-322.3459187528
 10
419.9101186346
 20
-321.7802628065
 10
424.7900783185
 20
-321.3872905609
 10
429.7026886392
 20
-321.1684861986
 10
434.629312787
 20
-321.1246845719
 10
439.5512639029
 20
-321.2560499142
 10
444.4498762015
 20
-321.562083443
 10
449.30655502
 20
-322.0416279218
 10
454.1028900881
 20
-322.6928570155
 10
458.8206818699
 20
-323.5133057042
 10
463.4420311256
 20
-324.4998611588
 10
467.9494126687
 20
-325.6487809891
 10
472.3257227813
 20
-326.955708451
 10
476.5543687759
 20
-328.4156815702
 10
480.6193038986
 20
-330.0231654567
 10
484.505108659
 20
-331.7720627596
 10
488.1970487822
 20
-333.6557349563
 10
491.6811120874
 20
-335.6670418905
 10
494.9440815865
 20
-337.7983535574
 10
497.9735888256
 20
-340.0415808971
 10
500.7581343007
 20
-342.3882179939
 10
503.2871559456
 20
-344.8293633653
 10
505.5510660108
 20
-347.3557534176
 10
507.5412691735
 20
-349.9578093961
 10
509.2502185135
 20
-352.6256575347
 10
510.6714313187
 20
-355.3491807585
 10
511.7995154267
 20
-358.1180460564
 10
512.6302008349
 20
-360.9217470598
 10
513.1603238954
 20
-363.7496557461
 10
513.3878799989
 20
-366.5910376448
 10
513.3120051349
 20
-369.4351172274
 10
512.9329837946
 20
-372.2711067998
 10
512.2522621417
 20
-375.0882475608
 10
511.2724111341
 20
-377.8758521812
 10
509.9971528653
 20
-380.6233473825
 10
508.4313315887
 20
-383.3203149958
 10
506.5808728877
 20
-385.9565155314
 10
504.4528113349
 20
-388.5219573707
 10
502.0552075149
 20
-391.0069020879
 10
499.3971618543
 20
-393.401929459
 10
496.4887586453
 20
-395.6979515286
 10
493.3410275204
 20
-397.8862591801
 10
489.9659069039
 20
-399.9585493184
 10
486.3762061448
 20
-401.9069649772
 10
482.5855353826
 20
-403.7241114765
 10
478.6082775586
 20
-405.4030969109
 10
474.4595189397
 20
-406.9375540089
 10
470.1550020323
 20
-408.3216612326
 10
465.7110449107
 20
-409.5501650176
 10
461.1445168512
 20
-410.6184120874
 10
456.4727257204
 20
-411.5223414697
 10
451.7134087561
 20
-412.258532398
 10
446.8846127121
 20
-412.8241883444
 10
442.0046530282
 20
-413.2171605899
 10
437.0920427075
 20
-413.4359649523
 10
432.1654185597
 20
-413.479766579
 10
427.2434674438
 20
-413.3484012366
 10
422.3448551452
 20
-413.0423677079
 10
417.4881763267
 20
-412.5628232291
 10
412.6918412586
 20
-411.9115941354
 10
407.9740494768
 20
-411.0911454467
 10
403.3527002211
 20
-410.1045899921
 10
398.845318678
 20
-408.9556701617
 10
394.4690085654
 20
-407.6487426998
 10
390.2403625708
 20
-406.1887695806
 10
386.1754274481
 20
-404.5812856941
 10
382.2896226877
 20
-402.8323883913
 10
378.5976825645
 20
-400.9487161946
 10
375.1136192593
 20
-398.9374092603
 10
371.8506497602
 20
-396.8060975935
 10
368.8211425211
 20
-394.5628702537
 10
366.036597046
 20
-392.216233157
 10
363.5075754011
 20
-389.7750877855
 10
361.2436653359
 20
-387.2486977332
 10
359.2534621732
 20
-384.6466417547
 10
357.5445128333
 20
-381.9787936162
 10
356.123300028
 20
-379.2552703924
 10
354.99521592
 20
-376.4864050945
 10
354.1645305119
 20
-373.682704091
 10
353.6344074513
 20
-370.8547954048
 10
353.4068513478
 20
-368.0134135061
 10
353.4827262118
 20
-365.1693339235
 10
353.8617475522
 20
-362.3333443511
 10
354.542469205
 20
-359.5162035901
 10
355.5223202126
 20
-356.7285989697
 10
356.7975784814
 20
-353.9811037683
 10
358.363399758
 20
-351.2841361551
 10
360.213858459
 20
-348.6479356194
 10
362.3419200119
 20
-346.0824937801
 10
364.7395238318
 20
-343.597549063
 10
367.3975694924
 20
-341.2025216919
 10
370.3059727014
 20
-338.9064996223
 10
373.4537038263
 20
-336.7181919707
 10
376.8288244428
 20
-334.6459018324
  0
LWPOLYLINE
  5
DA
330
1F
100
AcDbEntity
  8
0
  6
Continuous
 62
     7
370
    25
100
AcDbPolyline
 90
       96
 70
   128
 43
0.0
 10
383.5463366725
 20
-338.5238390984
 10
380.3606447373
 20
-340.4887391034
 10
377.4068743971
 20
-342.5708906523
 10
374.6979311486
 20
-344.7611829796
 10
372.2456668174
 20
-347.0500430331
 10
370.0607992153
 20
-349.4274575244
 10
368.1528943598
 20
-351.8830379375
 10
366.5302788877
 20
-354.4060406782
 10
365.2000611284
 20
-356.9854339834
 10
364.1680533958
 20
-359.6099427816
 10
363.4387654026
 20
-362.2680859493
 10
363.0153897726
 20
-364.9482424605
 10
362.8997730646
 20
-367.6386924452
 10
363.0924289433
 20
-370.327670413
 10
363.5925092034
 20
-373.0034215183
 10
364.3978274771
 20
-375.6542395771
 10
365.5048618685
 20
-378.2685385391
 10
366.9087747095
 20
-380.8348851822
 10
368.6034283653
 20
-383.3420538568
 10
370.5814076248
 20
-385.7790850323
 10
372.8340644815
 20
-388.1353233137
 10
375.3515464509
 20
-390.4004642024
 10
378.122848596
 20
-392.5646023782
 10
381.1358538622
 20
-394.6182732326
 10
384.3773880668
 20
-396.552496778
 10
387.833269783
 20
-398.3588186118
 10
391.4883913413
 20
-400.0293384284
 10
395.3267746409
 20
-401.5567483215
 10
399.3316287725
 20
-402.934372132
 10
403.4854417205
 20
-404.1561879725
 10
407.7700521446
 20
-405.216851418
 10
412.1667257704
 20
-406.1117213575
 10
416.6562370498
 20
-406.8368858453
 10
421.2189495024
 20
-407.389178068
 10
425.8349171324
 20
-407.7661801468
 10
430.4839542333
 20
-407.9662421453
 10
435.1457302192
 20
-407.988491194
 10
439.7998618205
 20
-407.8328299696
 10
444.4259973777
 20
-407.4999397359
 10
449.0039064034
 20
-406.9912742617
 10
453.5135717788
 20
-406.3090583
 10
457.9352727302
 20
-405.4562761823
 10
462.2496770249
 20
-404.4366550921
 10
466.4379160456
 20
-403.2546551796
 10
470.4816796209
 20
-401.9154452315
 10
474.363282538
 20
-400.4248794802
 10
478.0657524586
 20
-398.789477265
 10
481.5728933037
 20
-397.0163864407
 10
484.8693790962
 20
-395.1133656997
 10
487.9407952847
 20
-393.0887363853
 10
490.7737019635
 20
-390.9513459957
 10
493.3557173435
 20
-388.7105443285
 10
495.6755483742
 20
-386.3761293059
 10
497.7230541286
 20
-383.9583103839
 10
499.4892810358
 20
-381.4676577996
 10
500.9665030514
 20
-378.9150641739
 10
502.1482638051
 20
-376.311689767
 10
503.0293937226
 20
-373.6689191394
 10
503.6060390014
 20
-370.9983079279
 10
503.8756813673
 20
-368.311534944
 10
503.8371407085
 20
-365.6203489509
 10
503.4905856125
 20
-362.9365169594
 10
502.8375280973
 20
-360.2717755673
 10
501.8808262463
 20
-357.6377777346
 10
500.6246684023
 20
-355.0460380398
 10
499.0745402413
 20
-352.5078923815
 10
497.2372181862
 20
-350.0344394326
 10
495.1207417484
 20
-347.6364942594
 10
492.7343687464
 20
-345.3245411805
 10
490.0885305254
 20
-343.1086896674
 10
487.1947917855
 20
-340.9986329056
 10
484.065811563
 20
-339.0035948564
 10
480.7152750715
 20
-337.1322969918
 10
477.1578273529
 20
-335.3929260752
 10
473.4090238871
 20
-333.7930874004
 10
469.4852596335
 20
-332.339775994
 10
465.4036929692
 20
-331.0393448711
 10
461.1821737432
 20
-329.8974817498
 10
456.839159641
 20
-328.9191790181
 10
452.3936351835
 20
-328.1087173862
 10
447.8650458731
 20
-327.4696400352
 10
443.2731967772
 20
-327.0047396914
 10
438.6381576983
 20
-326.7160495022
 10
433.9802065389
 20
-326.6048316308
 10
429.3197054951
 20
-326.6715757356
 10
424.6770352025
 20
-326.9159852844
 10
420.072497271
 20
-327.3369942815
 10
415.5262220893
 20
-327.9327596643
 10
411.0580977014
 20
-328.7006780311
 10
406.6876552203
 20
-329.6373940046
 10
402.4340042907
 20
-330.7388040335
 10
398.3157553803
 20
-332.0001012527
 10
394.3509038763
 20
-333.4157633179
 10
390.5567951825
 20
-334.979602968
 10
386.9500121082
 20
-336.6847782897
 10
383.5463366725
 20
-338.5238390984
  0
LWPOLYLINE
  5
DB
330
1F
100
AcDbEntity
  8
0
  6
Continuous
 62
     7
370
    25
100
AcDbPolyline
 90
      103
 70
   128
 43
0.0
 10
457.4389975402
 20
-65.194996232
 10
460.0087225041
 20
-66.6789229092
 10
462.7832864201
 20
-68.2811049272
 10
465.7521631127
 20
-69.9954760756
 10
468.9040888368
 20
-71.8154896136
 10
472.2271044241
 20
-73.7342703655
 10
475.7086079669
 20
-75.7445356332
 10
479.3353969648
 20
-77.8386499572
 10
483.0937052035
 20
-80.0087011538
 10
486.9692817798
 20
-82.2464242833
 10
490.947422712
 20
-84.5433293972
 10
495.0130341599
 20
-86.890738046
 10
499.150706182
 20
-89.2797163615
 10
503.3447311748
 20
-91.70120737
 10
507.5792066055
 20
-94.1460294769
 10
511.8380666222
 20
-96.6049068811
 10
516.1051531768
 20
-99.0685106405
 10
520.3642845139
 20
-101.5274982139
 10
524.5993052194
 20
-103.9725301887
 10
528.7941441732
 20
-106.3943524088
 10
532.9328883058
 20
-108.7837777214
 10
536.999851087
 20
-111.1317133521
 10
540.9795935994
 20
-113.4292825721
 10
544.8570121247
 20
-115.6677657612
 10
548.6174194741
 20
-117.8386595326
 10
552.2465397195
 20
-119.933722351
 10
555.7306030248
 20
-121.9450292853
 10
559.0563924015
 20
-123.8649503304
 10
562.2112970517
 20
-125.6861812015
 10
565.1833591242
 20
-127.4018189957
 10
567.9612842513
 20
-129.0053682664
 10
570.5345416479
 20
-130.4907501499
 10
572.893382221
 20
-131.8523006462
 10
575.0288418629
 20
-133.0848820191
 10
576.9328257444
 20
-134.1838219569
 10
578.5981135835
 20
-135.1449287751
 10
580.0183912555
 20
-135.9645704979
 10
581.188266598
 20
-136.6396353088
 10
582.1032983868
 20
-137.1675604429
 10
582.7600226777
 20
-137.5463473903
 10
583.1559396359
 20
-137.7745542848
 10
583.2895662191
 20
-137.8513141515
 10
583.1603703234
 20
-137.7763577116
 10
582.7688524425
 20
-137.5499388551
 10
582.1165140579
 20
-137.1729258895
 10
581.2057944186
 20
-136.6467650314
 10
580.0401864445
 20
-135.9734378179
 10
578.6240839447
 20
-135.1554945595
 10
576.962871179
 20
-134.1960512946
 10
575.0628491013
 20
-133.0987167814
 10
572.9312248226
 20
-131.8676959157
 10
570.5760800013
 20
-130.5076437179
 10
568.0063550374
 20
-129.0237170407
 10
565.2317858531
 20
-127.4215380641
 10
562.2629144288
 20
-125.7071638743
 10
559.1109887047
 20
-123.8871503363
 10
555.7879731174
 20
-121.9683695845
 10
552.3064643063
 20
-119.9581073581
 10
548.6796858451
 20
-117.8639869514
 10
544.921372338
 20
-115.6939387962
 10
541.0457957617
 20
-113.4562278341
 10
537.0676548295
 20
-111.1593105528
 10
533.0020381133
 20
-108.8119049453
 10
528.8643713595
 20
-106.4229235884
 10
524.6703463667
 20
-104.00143258
 10
520.4358709361
 20
-101.556610473
 10
516.1770109194
 20
-99.0977330688
 10
511.9099243647
 20
-96.6341293095
 10
507.6507930277
 20
-94.175141736
 10
503.4157775905
 20
-91.7301067199
 10
499.2209360026
 20
-89.3082860204
 10
495.0821892358
 20
-86.918874396
 10
491.0152290887
 20
-84.5709129097
 10
487.0354892105
 20
-82.2733665039
 10
483.1580627826
 20
-80.0348757095
 10
479.3976580675
 20
-77.8639925848
 10
475.7685404562
 20
-75.7689160782
 10
472.2844771509
 20
-73.757609144
 10
468.95868514
 20
-71.8377017869
 10
465.8037778556
 20
-70.0164602691
 10
462.8317236857
 20
-68.3008300803
 10
460.0537959244
 20
-66.6972579954
 10
457.4805358936
 20
-65.2119019675
 10
455.1216979547
 20
-63.850337783
 10
452.986240947
 20
-62.6177548894
 10
451.0822517972
 20
-61.518817993
 10
449.416963958
 20
-60.5577111748
 10
447.996686286
 20
-59.738069452
 10
446.8268109436
 20
-59.0630046412
 10
445.9117791548
 20
-58.5350795071
 10
445.2550548638
 20
-58.1562925596
 10
444.8591326373
 20
-57.9280887065
 10
444.7255113224
 20
-57.8513257985
 10
444.8547072182
 20
-57.9262944057
 10
445.2462250991
 20
-58.1527010948
 10
445.898568752
 20
-58.5297110191
 10
446.8092778546
 20
-59.0558779599
 10
447.974891097
 20
-59.729202132
 10
449.3909935968
 20
-60.5471453904
 10
451.0522063625
 20
-61.5065886553
 10
452.9522231719
 20
-62.6039262099
 10
455.0838527189
 20
-63.8349440343
 10
457.4389975402
 20
-65.194996232
  0
LWPOLYLINE
  5
DC
330
1F
100
AcDbEntity
  8
0
  6
Continuous
 62
     7
370
    25
100
AcDbPolyline
 90
       96
 70
   128
 43
0.0
 10
464.1565097699
 20
-69.0729334979
 10
461.9358081269
 20
-67.7905186062
 10
459.9428101014
 20
-66.6395439595
 10
458.1862137491
 20
-65.6250570757
 10
456.6737161384
 20
-64.7514910987
 10
455.4119185193
 20
-64.0226465423
 10
454.4063526658
 20
-63.4417308283
 10
453.66140185
 20
-63.0112761532
 10
453.1803271844
 20
-62.7331790228
 10
452.9652412797
 20
-62.608642454
 10
453.0170740009
 20
-62.6382048638
 10
453.335606711
 20
-62.8217537515
 10
453.9194353933
 20
-63.1584739801
 10
454.7660180659
 20
-63.6469055653
 10
455.8716510745
 20
-64.284899561
 10
457.2314928
 20
-65.0696560754
 10
458.8396005365
 20
-65.9977759746
 10
460.6889476144
 20
-67.0651977582
 10
462.7714418385
 20
-68.2672021138
 10
465.0779821239
 20
-69.5985967032
 10
467.5984769346
 20
-71.0535260376
 10
470.3219042109
 20
-72.6256459995
 10
473.2363581269
 20
-74.3080534917
 10
476.3290946938
 20
-76.0934222684
 10
479.5865920173
 20
-77.9739221293
 10
482.9946001819
 20
-79.941332888
 10
486.5382222525
 20
-81.9870728839
 10
490.2019595486
 20
-84.1021946977
 10
493.9697903409
 20
-86.2774123337
 10
497.8252457483
 20
-88.5032545429
 10
501.751460446
 20
-90.7699785045
 10
505.7312648616
 20
-93.0676595581
 10
509.7472642005
 20
-95.3862672453
 10
513.781887178
 20
-97.7156508555
 10
517.8174979723
 20
-100.0456101492
 10
521.8364528589
 20
-102.3659949745
 10
525.8211713336
 20
-104.6666307378
 10
529.7542335772
 20
-106.9374598509
 10
533.6184410411
 20
-109.168558458
 10
537.3968875709
 20
-111.350189668
 10
541.0730674069
 20
-113.4727685745
 10
544.6308909898
 20
-115.527035637
 10
548.0548061324
 20
-117.5040475607
 10
551.329842801
 20
-119.3950875608
 10
554.4416763354
 20
-121.1919269627
 10
557.3767038404
 20
-122.8867233045
 10
560.1220916005
 20
-124.4720233787
 10
562.6658277639
 20
-125.9409274966
 10
564.9967908309
 20
-127.2870134429
 10
567.1048023377
 20
-128.5043790707
 10
568.980626856
 20
-129.5876909705
 10
570.6160668238
 20
-130.5322513964
 10
572.003973082
 20
-131.3338826824
 10
573.1382764843
 20
-131.9891280079
 10
574.0140142394
 20
-132.4950841027
 10
574.6273588865
 20
-132.8495396571
 10
574.9756235641
 20
-133.0509783686
 10
575.057296254
 20
-133.0984892164
 10
574.8720187079
 20
-132.9918638043
 10
574.4205864477
 20
-132.7315963667
 10
573.7049882777
 20
-132.3187970881
 10
572.728345699
 20
-131.7552787974
 10
571.4949313482
 20
-131.0435067876
 10
570.0101452904
 20
-130.186597301
 10
568.2804702376
 20
-129.1882916796
 10
566.3134834031
 20
-128.0529510527
 10
564.1177603533
 20
-126.7855616612
 10
561.7029263748
 20
-125.3916428567
 10
559.0795300336
 20
-123.8772957709
 10
556.259045809
 20
-122.249144011
 10
553.2538075814
 20
-120.5143074285
 10
550.0769538074
 20
-118.6803704716
 10
546.7423751663
 20
-116.7553519639
 10
543.2646640168
 20
-114.7476759282
 10
539.6590070536
 20
-112.6661096111
 10
535.9411986436
 20
-110.5197590278
 10
532.1274699333
 20
-108.318018958
 10
528.2345064648
 20
-106.0705101245
 10
524.2793276626
 20
-103.7870704499
 10
520.2792427103
 20
-101.4776565824
 10
516.2517320134
 20
-99.1523971272
 10
512.2144063692
 20
-96.8214474064
 10
508.1849200389
 20
-94.4950001076
 10
504.180890405
 20
-92.183238895
 10
500.2198347515
 20
-89.8962532436
 10
496.319072799
 20
-87.6440551689
 10
492.4956503135
 20
-85.4364864495
 10
488.7662969598
 20
-83.2832064653
 10
485.1473209339
 20
-81.1936313552
 10
481.6545483775
 20
-79.1768868716
 10
478.3032311815
 20
-77.2418038146
 10
475.1080469857
 20
-75.3968693624
 10
472.0829674706
 20
-73.6500780209
 10
469.241205673
 20
-72.0091384599
 10
466.5951949134
 20
-70.481187586
 10
464.1565097699
 20
-69.0729334979
  0
LWPOLYLINE
  5
DD
330
1F
100
AcDbEntity
  8
0
  6
Continuous
 62
     1
370
    25
100
AcDbPolyline
 90
       14
 70
   128
 43
0.0
 10
489.9659069039
 20
-231.8736980177
 10
493.3410275204
 20
-233.9459881559
 10
496.4887586453
 20
-236.1342958075
 10
499.3971618543
 20
-238.4303178771
 10
502.0552075149
 20
-240.8253452482
 10
504.4528113349
 20
-243.3102899653
 10
506.5808728877
 20
-245.8757318046
 10
508.4313315887
 20
-248.5119323403
 10
509.9971528653
 20
-251.2088999535
 10
511.2724111341
 20
-253.9563951549
 10
512.2522621417
 20
-256.7439997753
 10
512.9329837946
 20
-259.5611405363
 10
513.3120051349
 20
-262.3971301087
 10
513.3973630398
 20
-264.5300217606
  0
LWPOLYLINE
  5
DE
330
1F
100
AcDbEntity
  8
0
  6
Continuous
 62
     1
370
    25
100
AcDbPolyline
 90
       40
 70
   128
 43
0.0
 10
353.3973683069
 20
-264.5300217606
 10
353.4068513478
 20
-263.81883383
 10
353.6344074513
 20
-260.9774519313
 10
354.1645305119
 20
-258.149543245
 10
354.99521592
 20
-255.3458422416
 10
356.123300028
 20
-252.5769769437
 10
357.5445128333
 20
-249.8534537199
 10
359.2534621732
 20
-247.1856055814
 10
361.2436653359
 20
-244.5835496028
 10
363.5075754011
 20
-242.0571595506
 10
366.036597046
 20
-239.6160141791
 10
368.8211425211
 20
-237.2693770823
 10
371.8506497602
 20
-235.0261497426
 10
375.1136192593
 20
-232.8948380757
 10
378.5976825645
 20
-230.8835311415
 10
382.2896226877
 20
-228.9998589448
 10
386.1754274481
 20
-227.2509616419
 10
390.2403625708
 20
-225.6434777554
 10
394.4690085654
 20
-224.1835046362
 10
398.845318678
 20
-222.8765771743
 10
403.3527002211
 20
-221.727657344
 10
407.9740494768
 20
-220.7411018894
 10
412.6918412586
 20
-219.9206532007
 10
417.4881763267
 20
-219.269424107
 10
422.3448551452
 20
-218.7898796282
 10
427.2434674438
 20
-218.4838460994
 10
432.1654185597
 20
-218.3524807571
 10
437.0920427075
 20
-218.3962823838
 10
442.0046530282
 20
-218.6150867461
 10
446.8846127121
 20
-219.0080589917
 10
451.7134087561
 20
-219.573714938
 10
456.4727257204
 20
-220.3099058664
 10
461.1445168512
 20
-221.2138352487
 10
465.7110449107
 20
-222.2820823185
 10
470.1550020323
 20
-223.5105861035
 10
474.4595189397
 20
-224.8946933272
 10
478.6082775586
 20
-226.4291504252
 10
482.5855353826
 20
-228.1081358596
 10
486.3762061448
 20
-229.9252823589
 10
489.9659069039
 20
-231.8736980177
  0
LWPOLYLINE
  5
DF
330
1F
100
AcDbEntity
  8
0
  6
Continuous
 62
     1
370
    25
100
AcDbPolyline
 90
       17
 70
   128
 43
0.0
 10
489.9659069039
 20
-231.8736980177
 10
493.3724532644
 20
-233.840241135
 10
496.6143404488
 20
-235.7116940278
 10
499.6792717849
 20
-237.4809703076
 10
502.555627584
 20
-239.1413562572
 10
505.2324911538
 20
-240.6865562627
 10
507.699713665
 20
-242.1106876753
 10
509.9479279804
 20
-243.4083800455
 10
511.9686085829
 20
-244.5746880463
 10
513.7540965998
 20
-245.6051910876
 10
515.2976090227
 20
-246.4959925482
 10
516.5932953421
 20
-247.2436977197
 10
517.6362454503
 20
-247.8454791977
 10
518.4224975434
 20
-248.2990510226
 10
518.9490670979
 20
-248.6026914855
 10
519.2139653091
 20
-248.7552537713
 10
519.2479409374
 20
-248.774677918
  0
LWPOLYLINE
  5
E0
330
1F
100
AcDbEntity
  8
0
  6
Continuous
 62
     1
370
    25
100
AcDbPolyline
 90
       37
 70
   128
 43
0.0
 10
380.6838748454
 20
-168.7746775857
 10
380.7156397397
 20
-168.7932005781
 10
380.9761131904
 20
-168.9439671093
 10
381.4982894298
 20
-169.2458228304
 10
382.2801887907
 20
-169.6976158494
 10
383.3188424722
 20
-170.2976521087
 10
384.6103147653
 20
-171.0436460542
 10
386.1496987727
 20
-171.9327656996
 10
387.931161107
 20
-172.9616311548
 10
389.9479437845
 20
-174.1263500412
 10
392.1923912254
 20
-175.4225019069
 10
394.655995693
 20
-176.8451789126
 10
397.3294124409
 20
-178.3889710088
 10
400.2024946153
 20
-180.0480187916
 10
403.2643446216
 20
-181.816050765
 10
406.5033536373
 20
-183.6863301151
 10
409.9072253192
 20
-185.6517870311
 10
413.4630574635
 20
-187.704959391
 10
417.1573578102
 20
-189.8380566436
 10
420.9761125322
 20
-192.0429750176
 10
424.9048362845
 20
-194.311378133
 10
428.9286196194
 20
-196.6346331233
 10
433.0322106462
 20
-199.0039459949
 10
437.2000361043
 20
-201.4103220884
 10
441.416283023
 20
-203.8446314728
 10
445.6649645757
 20
-206.2976439295
 10
449.929959593
 20
-208.7600517646
 10
454.1950942218
 20
-211.2225108707
 10
458.444181438
 20
-213.6756939591
 10
462.6611132429
 20
-216.1102829539
 10
466.829885688
 20
-218.5170381892
 10
470.9346818512
 20
-220.8868524009
 10
474.9599390088
 20
-223.2107043362
 10
478.8903874892
 20
-225.4798028557
 10
482.7111171861
 20
-227.6855340799
 10
486.4076318887
 20
-229.819535338
 10
489.9659069039
 20
-231.8736980177
  0
ENDSEC
  0
SECTION
  2
OBJECTS
  0
DICTIONARY
  5
C
330
0
100
AcDbDictionary
281
     1
  3
ACAD_GROUP
350
D
  3
ACAD_LAYOUT
350
1A
  3
ACAD_MLINESTYLE
350
17
  3
ACAD_PLOTSETTINGS
350
19
  3
ACAD_PLOTSTYLENAME
350
E
  3
ACAD_SCALELIST
350
47
  0
DICTIONARY
  5
D
102
{ACAD_REACTORS
330
C
102
}
330
C
100
AcDbDictionary
281
     1
  0
DICTIONARY
  5
1A
102
{ACAD_REACTORS
330
C
102
}
330
C
100
AcDbDictionary
281
     1
  3
Layout1
350
1E
  3
Layout2
350
26
  3
Model
350
22
  0
DICTIONARY
  5
17
102
{ACAD_REACTORS
330
C
102
}
330
C
100
AcDbDictionary
281
     1
  3
Standard
350
18
  0
DICTIONARY
  5
19
102
{ACAD_REACTORS
330
C
102
}
330
C
100
AcDbDictionary
281
     1
  0
ACDBDICTIONARYWDFLT
  5
E
102
{ACAD_REACTORS
330
C
102
}
330
C
100
AcDbDictionary
281
     1
  3
Normal
350
F
100
AcDbDictionaryWithDefault
340
F
  0
DICTIONARY
  5
47
102
{ACAD_REACTORS
330
C
102
}
330
C
100
AcDbDictionary
281
     1
  3
A0
350
48
  3
A1
350
49
  3
A2
350
4A
  3
A3
350
4B
  3
A4
350
4C
  3
A5
350
4D
  3
A6
350
4E
  3
A7
350
4F
  3
A8
350
50
  3
A9
350
51
  3
B0
350
52
  3
B1
350
53
  3
B2
350
54
  3
B3
350
55
  3
B4
350
56
  3
B5
350
57
  3
B6
350
58
  3
B7
350
59
  3
B8
350
5A
  3
B9
350
5B
  3
C0
350
5C
  3
C1
350
5D
  3
C2
350
5E
  3
C3
350
5F
  3
C4
350
60
  3
C5
350
61
  3
C6
350
62
  3
C7
350
63
  3
C8
350
64
  3
C9
350
65
  3
D0
350
66
  3
D1
350
67
  3
D2
350
68
  0
LAYOUT
  5
1E
102
{ACAD_REACTORS
330
1A
102
}
330
1A
100
AcDbPlotSettings
  1

  2
none_device
  4

  6

 40
0.0
 41
0.0
 42
0.0
 43
0.0
 44
0.0
 45
0.0
 46
0.0
 47
0.0
 48
0.0
 49
0.0
140
0.0
141
0.0
142
1.0
143
1.0
 70
   688
 72
     1
 73
     0
 74
     5
  7

 75
    16
147
1.0
148
0.0
149
0.0
100
AcDbLayout
  1
Layout1
 70
     1
 71
     1
 10
0.0
 20
0.0
 11
420.0
 21
297.0
 12
0.0
 22
0.0
 32
0.0
 14
1.0000000000E+20
 24
1.0000000000E+20
 34
1.0000000000E+20
 15
-1.0000000000E+20
 25
-1.0000000000E+20
 35
-1.0000000000E+20
146
0.0
 13
0.0
 23
0.0
 33
0.0
 16
1.0
 26
0.0
 36
0.0
 17
0.0
 27
1.0
 37
0.0
 76
     0
330
1B
  0
LAYOUT
  5
26
102
{ACAD_REACTORS
330
1A
102
}
330
1A
100
AcDbPlotSettings
  1

  2
none_device
  4

  6

 40
0.0
 41
0.0
 42
0.0
 43
0.0
 44
0.0
 45
0.0
 46
0.0
 47
0.0
 48
0.0
 49
0.0
140
0.0
141
0.0
142
1.0
143
1.0
 70
   688
 72
     1
 73
     0
 74
     5
  7

 75
    16
147
1.0
148
0.0
149
0.0
100
AcDbLayout
  1
Layout2
 70
     1
 71
     2
 10
0.0
 20
0.0
 11
0.0
 21
0.0
 12
0.0
 22
0.0
 32
0.0
 14
0.0
 24
0.0
 34
0.0
 15
0.0
 25
0.0
 35
0.0
146
0.0
 13
0.0
 23
0.0
 33
0.0
 16
1.0
 26
0.0
 36
0.0
 17
0.0
 27
1.0
 37
0.0
 76
     0
330
23
  0
LAYOUT
  5
22
102
{ACAD_REACTORS
330
1A
102
}
330
1A
100
AcDbPlotSettings
  1

  2
none_device
  4
Letter_(8.50_x_11.00_Inches)
  6

 40
6.35
 41
6.35
 42
6.35000508
 43
6.35000508
 44
215.9
 45
279.4
 46
0.0
 47
0.0
 48
0.0
 49
0.0
140
0.0
141
0.0
142
1.0
143
1.0
 70
  1712
 72
     1
 73
     0
 74
     0
  7

 75
     0
147
1.0
148
0.0
149
0.0
100
AcDbLayout
  1
Model
 70
     1
 71
     0
 10
0.0
 20
0.0
 11
279.4
 21
215.9
 12
0.0
 22
0.0
 32
0.0
 14
0.0
 24
0.0
 34
0.0
 15
279.4
 25
215.9
 35
0.0
146
0.0
 13
0.0
 23
0.0
 33
0.0
 16
1.0
 26
0.0
 36
0.0
 17
0.0
 27
1.0
 37
0.0
 76
     0
330
1F
331
29
  0
MLINESTYLE
  5
18
102
{ACAD_REACTORS
330
17
102
}
330
17
100
AcDbMlineStyle
  2
Standard
 70
     0
  3

 62
   256
 51
90.0
 52
90.0
 71
     2
 49
0.5
 62
   256
  6
BYLAYER
 49
-0.5
 62
   256
  6
BYLAYER
  0
ACDBPLACEHOLDER
  5
F
102
{ACAD_REACTORS
330
E
102
}
330
E
  0
SCALE
  5
48
102
{ACAD_REACTORS
330
47
102
}
330
47
100
AcDbScale
 70
     0
300
1:1
140
1.0
141
1.0
290
     1
  0
SCALE
  5
49
102
{ACAD_REACTORS
330
47
102
}
330
47
100
AcDbScale
 70
     0
300
1:2
140
1.0
141
2.0
290
     0
  0
SCALE
  5
4A
102
{ACAD_REACTORS
330
47
102
}
330
47
100
AcDbScale
 70
     0
300
1:4
140
1.0
141
4.0
290
     0
  0
SCALE
  5
4B
102
{ACAD_REACTORS
330
47
102
}
330
47
100
AcDbScale
 70
     0
300
1:5
140
1.0
141
5.0
290
     0
  0
SCALE
  5
4C
102
{ACAD_REACTORS
330
47
102
}
330
47
100
AcDbScale
 70
     0
300
1:8
140
1.0
141
8.0
290
     0
  0
SCALE
  5
4D
102
{ACAD_REACTORS
330
47
102
}
330
47
100
AcDbScale
 70
     0
300
1:10
140
1.0
141
10.0
290
     0
  0
SCALE
  5
4E
102
{ACAD_REACTORS
330
47
102
}
330
47
100
AcDbScale
 70
     0
300
1:16
140
1.0
141
16.0
290
     0
  0
SCALE
  5
4F
102
{ACAD_REACTORS
330
47
102
}
330
47
100
AcDbScale
 70
     0
300
1:20
140
1.0
141
20.0
290
     0
  0
SCALE
  5
50
102
{ACAD_REACTORS
330
47
102
}
330
47
100
AcDbScale
 70
     0
300
1:30
140
1.0
141
30.0
290
     0
  0
SCALE
  5
51
102
{ACAD_REACTORS
330
47
102
}
330
47
100
AcDbScale
 70
     0
300
1:40
140
1.0
141
40.0
290
     0
  0
SCALE
  5
52
102
{ACAD_REACTORS
330
47
102
}
330
47
100
AcDbScale
 70
     0
300
1:50
140
1.0
141
50.0
290
     0
  0
SCALE
  5
53
102
{ACAD_REACTORS
330
47
102
}
330
47
100
AcDbScale
 70
     0
300
1:100
140
1.0
141
100.0
290
     0
  0
SCALE
  5
54
102
{ACAD_REACTORS
330
47
102
}
330
47
100
AcDbScale
 70
     0
300
2:1
140
2.0
141
1.0
290
     0
  0
SCALE
  5
55
102
{ACAD_REACTORS
330
47
102
}
330
47
100
AcDbScale
 70
     0
300
4:1
140
4.0
141
1.0
290
     0
  0
SCALE
  5
56
102
{ACAD_REACTORS
330
47
102
}
330
47
100
AcDbScale
 70
     0
300
8:1
140
8.0
141
1.0
290
     0
  0
SCALE
  5
57
102
{ACAD_REACTORS
330
47
102
}
330
47
100
AcDbScale
 70
     0
300
10:1
140
10.0
141
1.0
290
     0
  0
SCALE
  5
58
102
{ACAD_REACTORS
330
47
102
}
330
47
100
AcDbScale
 70
     0
300
100:1
140
100.0
141
1.0
290
     0
  0
SCALE
  5
59
102
{ACAD_REACTORS
330
47
102
}
330
47
100
AcDbScale
 70
     0
300
1/128" = 1'-0"
140
0.0078125
141
12.0
290
     0
  0
SCALE
  5
5A
102
{ACAD_REACTORS
330
47
102
}
330
47
100
AcDbScale
 70
     0
300
1/64" = 1'-0"
140
0.015625
141
12.0
290
     0
  0
SCALE
  5
5B
102
{ACAD_REACTORS
330
47
102
}
330
47
100
AcDbScale
 70
     0
300
1/32" = 1'-0"
140
0.03125
141
12.0
290
     0
  0
SCALE
  5
5C
102
{ACAD_REACTORS
330
47
102
}
330
47
100
AcDbScale
 70
     0
300
1/16" = 1'-0"
140
0.0625
141
12.0
290
     0
  0
SCALE
  5
5D
102
{ACAD_REACTORS
330
47
102
}
330
47
100
AcDbScale
 70
     0
300
3/32" = 1'-0"
140
0.09375
141
12.0
290
     0
  0
SCALE
  5
5E
102
{ACAD_REACTORS
330
47
102
}
330
47
100
AcDbScale
 70
     0
300
1/8" = 1'-0"
140
0.125
141
12.0
290
     0
  0
SCALE
  5
5F
102
{ACAD_REACTORS
330
47
102
}
330
47
100
AcDbScale
 70
     0
300
3/16" = 1'-0"
140
0.1875
141
12.0
290
     0
  0
SCALE
  5
60
102
{ACAD_REACTORS
330
47
102
}
330
47
100
AcDbScale
 70
     0
300
1/4" = 1'-0"
140
0.25
141
12.0
290
     0
  0
SCALE
  5
61
102
{ACAD_REACTORS
330
47
102
}
330
47
100
AcDbScale
 70
     0
300
3/8" = 1'-0"
140
0.375
141
12.0
290
     0
  0
SCALE
  5
62
102
{ACAD_REACTORS
330
47
102
}
330
47
100
AcDbScale
 70
     0
300
1/2" = 1'-0"
140
0.5
141
12.0
290
     0
  0
SCALE
  5
63
102
{ACAD_REACTORS
330
47
102
}
330
47
100
AcDbScale
 70
     0
300
3/4" = 1'-0"
140
0.75
141
12.0
290
     0
  0
SCALE
  5
64
102
{ACAD_REACTORS
330
47
102
}
330
47
100
AcDbScale
 70
     0
300
1" = 1'-0"
140
1.0
141
12.0
290
     0
  0
SCALE
  5
65
102
{ACAD_REACTORS
330
47
102
}
330
47
100
AcDbScale
 70
     0
300
1-1/2" = 1'-0"
140
1.5
141
12.0
290
     0
  0
SCALE
  5
66
102
{ACAD_REACTORS
330
47
102
}
330
47
100
AcDbScale
 70
     0
300
3" = 1'-0"
140
3.0
141
12.0
290
     0
  0
SCALE
  5
67
102
{ACAD_REACTORS
330
47
102
}
330
47
100
AcDbScale
 70
     0
300
6" = 1'-0"
140
6.0
141
12.0
290
     0
  0
SCALE
  5
68
102
{ACAD_REACTORS
330
47
102
}
330
47
100
AcDbScale
 70
     0
300
1'-0" = 1'-0"
140
12.0
141
12.0
290
     0
  0
ENDSEC
  0
EOF
